Guitar Tabs, Chords and Lyrics
Login is temporarily disabled for some users. Do not panic. Will be back in an hour or two. DO NOT REREGISTER!!


Capri  Colbie Caillat

Coco
Submitted by: paramore_fans@yahoo.com
Key: E
Tuning: Standard EADGBe
Chords used:
E - 022100
B - x24442
C#m - x46654
A - x02220
Intro:
 
 e|------0---------0----------0-|
 B|-2h4-----0-2h4----0----------|
 G|---------------------1--2----|
 D|-----------------------------|
 A|-----------------------------|
 E|-----------------------------|
 e|------0---------0--------|
 B|-2h4-----0-2h4----0------|
 G|---------------------1h2-|
 D|-------------------------|
 A|-------------------------|
 E|-------------------------|

Verse 1:
[E] She’s got a [B]baby in[C#m]side[A]
[E] And holds her [B]belly [C#m]tight
[A]All through the [E]night
[B]Just so she [C#m]knows
[A]She’s sleeping [E]so
[B]Safely to [C#m]keep
Her [A]growing
Interlude: E-B-C#m-A
Verse 2:
[E] And oh when [B]she'll open her [C#m]eyes
There'll [A]be no sur[E]prise
That [B]she'll grow to [C#m]be
So [A]beautiful[E]ly
[B]Just like her [C#m]mother
That’s [A]carrying
Chorus;
[E] [B]Oh Cap[C#m]ri [A]she’s beau[E]ty
[B]Baby in[C#m]side she’s [A]lo[E]ving
[B]Oh Cap[C#m]ri [A]She’s beau[E]ty
[B]There is an [C#m]angel
growing [A]peaceful[E]ly
[B]Oh Cap[C#m]ri [A]Sweet baby[E]
Interlude: E-B-C#m-A x2
Lead:
[E] [B] [C#m] [A]  
 
 e|-9-7---7-|----7---|----7---|-------|
 B|-----9---|--------|--------|-9-----|
 G|---------|-8----9-|-8----8-|---8-9-|
 D|---------|--------|--------|-------|
 A|---------|--------|--------|-------|
 E|---------|--------|--------|-------|

[E] [B] [C#m] [A]  
 
 e|-----9-7-|---------|-----9-7-|---------|
 B|---------|---9-----|---------|---9-----|
 G|-8-9-----|-8---8-9-|-8-9-----|-8---8-9-|
 D|---------|---------|---------|---------|
 A|---------|---------|---------|---------|
 E|---------|---------|---------|---------|

Verse 3:
[E] And things will be [B]hard at [C#m]times
But [A]I've learned to [E]try
Just [B]liste[C#m]ning [A]Patiently
Chorus 2:
[E] [B]Oh Cap[C#m]ri [A]she’s beau[E]ty
[B]Baby in[C#m]side she’s [A]lo[E]ving
[B]Oh Cap[C#m]ri [A]She’s beau[E]ty
[B]Just like her [C#m]mother
That’s [A]carrying
Outro: E-B-C#m-A

Important: The song above is NOT stored on the Chordie server. The original song is hosted at www.guitartabs.cc. Chordie works as a search engine and provides on-the-fly formatting. Chordie does not index songs against artists'/composers' will. To remove this song please click here.

Text color:
Chord color:
Chord grids: 
Font size:    
Page size: 

A B C#m E
Rate #2 of 4 versions

Jango Player

Login - add to songbook

SHARE PAGE  




You need to log in to post comments