Guitar Tabs, Chords and Lyrics
Login is temporarily disabled for some users. Do not panic. Will be back in an hour or two. DO NOT REREGISTER!!


Dreams Collide  Colbie Caillat

Dreams Collide - Colbie Caillat
Tabbed by: Laura A.
laura.a.abercrombie@gmail.com
My first tab. Gorgeous song once you get the picking pattern down. Enjoi!
-Laura
((CAPO 6))
Intro 2X
 
 e-------------------------------------|-------------------------------------|
 B-------------------3---3---3---3---3-|---------------0---0---0---0--0------|
 G----------0---0----------------------|-------0---0-------------------------|
 D-----2-------------------------------|---0---------------------------------|
 A--3-----3---3----3---3---3---3---3---|-2---2---2---2---2---2---2---2-------|
 E-------------------------------------|-------------------------------------|

Verse
 
 e-------------------------------------|-------------------------------------|
 G-------------------3---3---3---3---3-|---------------0---0---0---0--0------|
 B----------0---0----------------------|-------0---0-------------------------|
 D-----2-------------------------------|---0---------------------------------|
 A--3-----3---3----3---3---3---3---3---|-2---2---2---2---2---2---2---2-------|
 E-------------------------------------|-------------------------------------|

I am stuck here In a moment
and I'm trying to pretend
so I'll play this feeling over and over again
I know all this memory
maybe I should wake instead
But I'm on my way to go back
Inside my head
Chorus
[Am] [D]  
 
 e-----------------0---0---0---0---0-|---------------2---2---2---2---2---|
 G---------1---1---------------------|-------3---3-----------------------|
 B----2------------------------------|---2-------------------------------|
 D-2-----2---2---2---2---2---2---2---|-0---0---0---0---0---0---0---0-----|
 A-----------------------------------|-----------------------------------|
 E-----------------------------------|-----------------------------------|

I close my eyes, and try
to hide
[C] [D]  
 
 e------------------------0--0--0----|---------------2---2---2---2---2---|
 G----------------1---1--------------|-------3---3-----------------------|
 B--------0---0----------------------|---2-------------------------------|
 D----2------------------------------|-0---0---0---0---0---0---0---0-----|
 A--3---3---3---3---3---3---3--3-----|-----------------------------------|
 E-----------------------------------|-----------------------------------|

But wake when these dreams
 
 e------------------------------------|---------------------------------------|
 G--------------0---0---0---0--0------|-------------------3---3---3---3---3---|
 B------0---0-------------------------|----------0---0------------------------|
 D--0---------------------------------|-----2---------------------------------|
 A-2--2---2---2---2---2---2---2-------|--3-----3---3----3---3---3---3---3-----|
 E------------------------------------|---------------------------------------|

Collide. (1.5x)
Bridge (strum)
But it all breaks d[C]own
If [D]I k[Em]eep on wasting all my t[C]ime
All a[C]lone in my [D]head.
Wish I'd n[Em]ever thought about it in the e[C]nd.
 
 e------------------------------------|---------------------------------------|
 G--------------0---0---0---0--0------|-------------------3---3---3---3---3---|
 B------0---0-------------------------|----------0---0------------------------|
 D--0---------------------------------|-----2---------------------------------|
 A-2--2---2---2---2---2---2---2-------|--3-----3---3----3---3---3---3---3-----|
 E------------------------------------|---------------------------------------|

Oooh (1.5x)
Chorus and intro

Important: The song above is NOT stored on the Chordie server. The original song is hosted at www.guitartabs.cc. Chordie works as a search engine and provides on-the-fly formatting. Chordie does not index songs against artists'/composers' will. To remove this song please click here.

Text color:
Chord color:
Chord grids: 
Font size:    
Page size: 

Am C D Em
Rate #2 of 4 versions

Jango Player

Login - add to songbook

SHARE PAGE  



You need to log in to post comments