Guitar Tabs, Chords and Lyrics
Login is temporarily disabled for some users. Do not panic. Will be back in an hour or two. DO NOT REREGISTER!!


Realize  Colbie Caillat

Coco
Submitted by: paramore_fans@yahoo.com
Key: C#
Tuning: C#-G#-C#-C#-C#-C#, If your familiar with the song
Screaming Infidelities by Dashboard Confessional, the tuning of the song is
similar to this song
Converting standard EADGBe to C#-G#-C#-C#-C#-C# tuning
e tune it 1 and 1/2 steps down to c#
B tune it 1 step up to C#
G tune it 3 steps down to C#
D tune it 1/2 step down to C#
A tune it 1/2 step down to G#
E tune it 1 and 1/2 steps down to C#
Converting standard EADGBe to C#-G#-C#-F-G#-Eb Bubbly 1/2 step lower tuning
e tune it 1/2 step down to Eb
B tune it 1 and 1/2 step down ro G#
G tune it 1 step down to F
D tune it 1/2 step down to C#
A tune it 1/2 step down to G#
E tune it 1 and 1/2 step to C#
Converting standard EADGBe to Drop C#
e tune it 1/2 step down to Eb
B tune it 1/2 step down to Bb
G tune it 1/2 step down to F#
D tune it 1/2 step down to C#
A tune it 1/2 step down to G#
E tune it 1 and 1/2 step down to C#
Chords: for C#-G#-C#-C#-C#-C# tuning
[C#] [G#/Csus4] [F#] [Bbm] [G#/C] [C#/F] [F#9] [G#]  
 
 c#|-12-|-12-------|-12-|--0---|-11---|-0----|-7---|-0-|
 C#|-12-|-12-------|--0-|--0---|-12---|-0----|-0---|-0-|
 C#|--0-|--0-------|--0-|-12---|--0---|-0----|-0---|-0-|
 C#|--0-|--0-------|--0-|--9---|--0---|-7----|-5---|-7-|
 G#|-12-|-12-------|-10-|--9---|-12---|-5----|-5---|-7-|
 C#|-12-|-11-------|----|--9---|-11---|-4----|-5---|-7-|

Chords: for C#-G#-C#-F-G#-Eb Bubbly 1/2 step lower tuning without a capo
[C#] [G#/C] [Bbm] [F#] [C#/F]  
 
 eb|----|------|-----|----|-----|
 Ab|-5--|------|-5---|----|-----|
 F |-3--|-7----|-0---|-8--|-3---|
 C#|-0--|-7----|-4---|-5--|-4---|
 G#|-0--|-4----|-2---|-5--|-5---|
 C#|-0--|------|-----|-5--|-4---|

Chords: for Drop C# tuning without a capo
[C#] [G#/C] [Bbm] [F#] [C#/F]  
 
 Eb|---|-----|----|----|----|
 Bb|-3-|-----|----|----|----|
 F#|-2-|-6---|-7--|-7--|-7--|
 C#|-0-|-7---|-7--|-5--|-4--|
 G#|-0-|-4---|-9--|-5--|-5--|
 C#|-0-|-----|-9--|-5--|-4--|

Chords: for Standard tuning without a capo
[C#] [F#] [Bbm] [G#/C] [C#/F] [F#9] [G#]  
 
 e|-4-|-2-|--1---|------|------|-4--|-4---|
 B|-6-|-2-|--2---|------|------|-2--|-4---|
 G|-6-|-3-|--3---|-3----|------|-3--|-5---|
 D|-6-|-4-|--3---|-4----|-3----|-4--|-6---|
 A|-4-|-4-|--1---|-1----|-4----|-4--|-6---|
 E|---|-2-|--x---|------|-1----|-2--|-4---|

You can prefer any of these 4 tunings whichever you're comfortable with
Verse1:
C#(hold)
Take time to realize
[G#/Csus4] That your warmth is [F#9]crashing [Bbm]down on [G#/C]me
C#(hold)
Take time to Realize
[G#/Csus4] That I am on your sid[F#9]e Didn’t I, [Bbm]didn’t I tell [G#/Csus4]you
Refrain:
[F#9] But I cant s[Bbm]pell it out for you
[G#/C] No its never gonna be that simple
[F#9] No I cant s[Bbm]pell it out for you[G#/C]
Chorus:
If you just [C#]realize
what I just [G#]realized
Then we’d be [Bbm]perfect for each other
and we’ll [F#]never find another
Just [C#]realize what
I just [G#]realized
we’d [Bbm]never have to wonder if
we [F#]missed out on each other [C#-G#-Bbm-F#]now
Verse2:
C#(hold)
Take time to realize
[G#/Csus4] Oh oh, I'm on your side
[F#9] Didn't I,[Bbm] didn't I [G#/C#]tell you
C#(hold)
Take time to realize
[G#/Csus4] Oh oh, I'm on your side
[F#9] oh h[Bbm]o ho[G#/C#]
(Repeat Refrain and Chorus exept last line)
we [F#]missed out on each other now but
Bridge:
[Bbm] Its not the [G#/C]same
[F#9] no its never the [G#]same
If [Bbm]you [G#/C]don’t[C#] feel [C#/F]it [F#]too
[Bbm] If you meet me half [G#]way
[F#9] If you would meet me half [G#]way
It could [Bbm7]be [G#/C]the [C#]same [C#/F]for [F#]you
(Repeat Chorus)
Outro:
[C#] we [G#/C]missed out on each other [Bbm]now
[F#]we missed out on each other now
[C#] we [G#/C]missed out on each other [Bbm]now
F# C#-G#-Bbm-F#(until fade out)
oh oh oh yeah

Important: The song above is NOT stored on the Chordie server. The original song is hosted at www.guitartabs.cc. Chordie works as a search engine and provides on-the-fly formatting. Chordie does not index songs against artists'/composers' will. To remove this song please click here.

Text color:
Chord color:
Chord grids: 
Font size:    
Page size: 

Bbm Bbm7 C# C#/F F# F#9 G# G#/C G#/C#
Rate #1 of 19 versions

Jango Player

Login - add to songbook

SHARE PAGE  



You need to log in to post comments