Guitar Tabs, Chords and Lyrics
Major upgrade!! After one year development the new version of Chordie is now online! Please give feedback.


Sedang Ingin Bercinta  Dewa 19

My first tab, actually this is 98 % correct
sedang ingin bercinta-dewa
Republik Cinta
Standard Tuning (E,A,D,G,B,E)
Guitar 1: Lead
Guitar 2: backing
Intro / Verse 1:
Guitar 2(Clean)
 
 e|------------------------------------------|
 B|-------3-----3-2------------0-----3-2-----|
 G|-----4-----------4-2------------------4-2-|
 D|---4-------4--------------2---------------|
 A|-2-------2--------------2-------2---------|
 E|----------------------0-------0-----------|

continue
 
 ---------------------------3----------------|
 ------2-----3-2----------2----2-------------|
 ----2-----------4-2----3--------3--------3--|
 --2-------2----------0-----------------4----|
 0-------0----------------------------4------|
 -----------------------------------2--------|

Chorus:
Guitar 1 and guitar 2 (distortion)
[B5] [E5] [A5] [D5] 
 
 e|------------------------------------------------|
 B|------------------------------------------------|
 G|-4-4-----------------------------------7~-------| (2x)
 D|-4-4---2-2--------7-----7--------------7~-------|
 A|-2-2---2-2--------7-----7----------5~-----------|
 E|-------0-0----5------5--------------------------|

Little drum(4x)
Verse 2:
Guitar 1(distortion)
[B5] [A5] [B5] [E5] [D5]  
 
 e|----------------------------------------------------------------------|
 B|----------------------------------------------------------------------|
 G|---------------------------------------9--(3x)--------7---------------|
 D|-----9-(3x)------7--------9------------9--------------7---------------|
 A|-----9-----------7--------9-------7--------------5--------------------|
 E|-7-----------5--------7-----------------------------------------------|

[A5] [G5] [A5] [D5] [F#5]  
 
 e|--------------------------------------------------------------------|
 B|--------------------------------------------------------------------|
 G|-----------------------------------7-(3x)---------------------------|
 D|-7-----(3x)--5--------7------------7----------------4~--------------|
 A|-7-----------5--------7------------5----------------4~--------------|
 E|-5-----------3--------5-----------------------------2~--------------|

Verse 2:
Guitar 2 (clean)
 
 e|------------------------------------------|
 B|-------3-----3-2------------0-----3-2-----|
 G|-----4-----------4-2------------------4-2-|
 D|---4-------4--------------2---------------|
 A|-2-------2--------------2-------2---------|
 E|----------------------0-------0-----------|

continue
 
 ---------------------------3----------------|
 ------2-----3-2----------2----2-------------|
 ----2-----------4-2----3--------3--------3--|
 --2-------2----------0-----------------4----|
 0-------0----------------------------4------|
 -----------------------------------2--------|

Chorus:
Guitar 1 and guitar 2 (distortion)
[B5] [E5] [A5] [D5] 
 
 e |------------------------------------------------|
 B |------------------------------------------------|
 G |-4-4-----------------------------------7~-------| (2x)
 D |-4-4---2-2--------7-----7--------------7~-------|
 A |-2-2---2-2--------7-----7----------5~-----------|
 E |-------0-0----5------5--------------------------|

( Tab from: http://www.guitartabs.cc/tabs/d/dewa/sedang_ingin_bercinta_tab_ver_2.html )
Verse 2( backing vocal sings this verse)
[B5] [A5] [B5] [E5] [D5]  
 
 e|------------------------------------------------------------------------|
 B|------------------------------------------------------------------------|
 G|----------------------------------9---9--(3x)----7---7------------------|
 D|-9--9-(3x)---7--7-----9--9--------9---9----------7---7------------------|
 A|-9---9-------7---7----9---9-------7--------------5----------------------|
 E|-7-----------5--------7-------------------------------------------------|

[A5] [G5] [A5] [D5] [F#5]  
 
 e|----------------------------------------------------------------------|
 B|----------------------------------------------------------------------|
 G|----------------------------------7----7-(3x)-------------------------|
 D|-7---7-(3x)--5---5----7---7-------7----7---------4~-------------------|
 A|-7---7-------5---5----7---7-------5--------------4~-------------------|
 E|-5-----------3--------5--------------------------2~-------------------|

Chorus:
guitar 1 and guitar 2(clean)
Aku sedang [Bm]ingin [Em]bercinta
[A]Kare[D]na mungkin ada [Bm]kamu [Em]disini...
[A]Aku ing[D]in... 2x
Solo:
Guitar 1(distortion)
 
 e|--------------------------------------------|
 B|---------------------9b-------------7-------|
 G|--/4-----/7----9--9-------9b---7------------|
 D|--------------------------------------9-----|
 A|--------------------------------------------|
 E|--------------------------------------------|
 e|---------------7-----10-----7/14--13--14-----------------------|
 B|-7-----10--10----------------------------------17--15--15------|
 G|---------------------------------------------------------------|
 D|---------------------------------------------------------------|
 A|---------------------------------------------------------------|
 E|---------------------------------------------------------------|
 e|------------------------------------|-------------12---14-----12---------|
 B|-----------------14--14-------------|-12----15-------------------15------|
 G|--/11----/13------------14~----15---|--------------------------------(4x)|
 D|------------------------------------|------------------------------------|
 A|------------------------------------|------------------------------------|
 E|------------------------------------|------------------------------------|
 e|--------------------------|
 B|--17-17--15----19~--------|
 G|--------------------------|
 D|--------------------------|
 A|--------------------------|
 E|--------------------------|

Guitar 2
[B5] [E5] [A5] [D5] 
 
 e|------------------------------------------------|
 B|------------------------------------------------|
 G|-4-4-----------------------------------7~-------| (2x)
 D|-4-4---2-2--------7-----7--------------7~-------|
 A|-2-2---2-2--------7-----7----------5~-----------|
 E|-------0-0----5------5--------------------------|

COda:
guitar 1 and guitar 2(clean)
Aku sedang [Bm]ingin [Em]bercinta
[A]Kare[D]na mungkin ada [Bm]kamu [Em]disini...
[A]Aku ing[D]in... 2x
if i make a mistake, email me, com_4de@hotmail.com
vote me okay

Important: The song above is NOT stored on the Chordie server. The original song is hosted at www.guitartabs.cc. Chordie works as a search engine and provides on-the-fly formatting. Chordie does not index songs against artists'/composers' will. To remove this song please click here.

Text color:
Chord color:
Chord grids: 
Font size:    
Page size: 

A A5 B5 Bm D D5 E5 Em F#5 G5
Rate #1 of 9 versions

Login - add to songbook

SHARE PAGE  



You need to log in to post comments