Guitar Tabs, Chords and Lyrics
Server problems seems to be fixed. Chordie has been experiencing problems with songs disappearing. These issues now seems to be fixed, but still verifying the fix. If you find anything strange, please email admin@chordie.com.


All You Want  Dido

 
 ----------------------------------------------------------------------------

ALL YOU WANT - Dido
 
 ----------------------------------------------------------------------------

This is my first attempt to write a tab, so please don't go hard on me.
Intro tab (can be also used for the verses):
 
 e|-------------------------------------------------------------------------|
 B|-------------------------------------------------------------------------|
 G|-------------------------------7-----------------------------------------|
 D|---------------------------------10-9------------------------------------|
 A|-7-5-------7-5-------7-5--------------12-10------------------------------|
 E|-----5-7-8-----5-7-8-----5-7-8-------------------------------------------|

[E]I'd like to watch you sleep at n[Am]ight, to hear you br[E]eathe by my side
And although sleep leaves me be[Am]hind, there's now[E]here i'd rather be
[E]And now our bed is oh so c[Am]old, my hands feel em[E]pty, no one to hold
I can sleep what side I w[Am]ant, it's not the s[E]ame with you gone
[D]Oh if you'd come h[Bb]ome, I'll let you know that
[E]All you w[A]ant is [Am/C]right here in th[E]is room, all you w[A]an[Am/C]t
And a[E]ll you n[A]eed is s[Am/C]itting here with y[E]ou, a[A]ll [Am/C]you w[E]ant
[E]It's been three years, one night a[Am]part, but in that ni[E]ght you tore my heart
[E]If only you had slept al[Am]one, if those se[E]eds had not been sown
[D]Oh you could come h[Bb]ome and you would know that
[E]All you w[A]ant is [Am/C]right here in th[E]is room, all you w[A]an[Am/C]t
[E]All you ne[A]ed is si[Am/C]tting here with y[E]ou, a[A]ll yo[Am/C]u wan[E]t
[D]I hear your [Am7]key tur[D]ning in the d[Am7]oor,
[D]I won't be he[Am7]aring t[D]hat sound any[Am7]more
[D]And you and your [Am7]sin can le[D]ave the way you [Am7]just came in,
[D]send my regards to [Am7]her, I hope [D]you've found that
[E]All you w[A]ant is [Am/C]right there in t[E]hat room, all you [A]wa[Am/C]nt
[E]All you n[A]eed is s[Am/C]itting there with y[E]ou, all yo[A]u [Am/C]want
Outro tab:
 
 e|-----------------------------------------------------|
 B|-----------------------------------------------------|
 G|-----------7-----------------------------------------|
 D|-------------10-9------------------------------------|
 A|-7-5--------------12-10------------------------------|
 E|-----5-7-8-------------------------------------------|

I'd like to watch you sleep at night, to hear you breathe by my side

Important: The song above is NOT stored on the Chordie server. The original song is hosted at www.guitartabs.cc. Chordie works as a search engine and provides on-the-fly formatting. Chordie does not index songs against artists'/composers' will. To remove this song please click here.

Text color:
Chord color:
Chord grids: 
Font size:    
Page size: 

A Am Am/C Am7 Bb D E
Rate #2 of 14 versions

Jango Player

Login - add to songbook

SHARE PAGE  




You need to log in to post comments