Guitar Tabs, Chords and Lyrics
Server problems seems to be fixed. Chordie has been experiencing problems with songs disappearing. These issues now seems to be fixed, but still verifying the fix. If you find anything strange, please email admin@chordie.com.


Here With Me  Dido

Tabbing of Chords:
[G] [Bm] [Em] [F#m] [D] [A] [Gmaj7] 
 
 e|--3--|--2--|--0--|--2--|--2--|--0--|--2--]
 b|--0--|--3--|--0--|--2--|--3--|--2--|--0--]
 g|--0--|--4--|--0--|--2--|--2--|--2--|--0--]
 d|--0--|--4--|--2--|--4--|--0--|--2--|--0--]
 A|--2--|--0--|--2--|--4--|--0--|--0--|--2--]
 E|--3--|--0--|--0--|--0--|--0--|--0--|--2--]

Tab pattern for intro verse
[G] [Bm]  
 
 E||-----------33------------33---|--------22-----------22------||
 B||---------0--- 0--------0---0---|-----3-----3------3-----3---||
 G||------0------------0----------|---4------------4------------||
 D||----0-----------0-------------|-4------------4--------------||
 A||------------------------------|-----------------------------||
 E||------------------------------|-----------------------------||

[G]I didn't here you leave
I wonder how am I still here[Bm]
I don't want to move a thing[G]
It might change my memory[Bm]
Pre-chorus:
[Emadd9] [F#m]  
 
 E||--------------------------|--------------------------||
 B||-----------0-----------0--|-----------2-----------2--||
 G||-----------0-----------0--|-----------2-----------2--||
 D||--------4-----------4-----|--------4-----------4-----||
 A||-----2-----------2--------|-----4-----------4--------||
 E||--0-----------0-----------|--2-----------2-----------||

Oh I am what I am, I'll do what I want, But I can't hide
[ Tab from: bttp://www.guitartabs.cc/tabs/d/dido/bere_witb_me_crd_ver_4.btml ] 
G (guitar strum starts here)
I won't go
I won't[Gmaj7] sleep
I can't brea[D]the
until you're [F#m]resting here with me
I [Bm]won't leave
I can't hide
I cannot be[A]
until your resting here with me[G]
[Bm]  
[G]I don't want to call my friends
they might wake me from this dream[Bm]
and I can't leave this b[G]ed
risk forgetting all that's [Bm]been
Oh I [Em]am what I am
I'll do what I want
but [F#m]I can't hide
I won't go[G]
I won't [Gmaj7]sleep
I can't [D]breathe
until you're [F#m]resting here with me
I won't leave[Bm]
I can't hide
I cannot be[A]
until your resting here
I won't [G]go
I won't [Gmaj7]sleep
I can't breat[D]he
until you're [F#m]resting here with me
I won't leave[Bm]
I can't hide
I cannot be[A]
until your resting here
[Emadd9] [F#m]  
 
 E||--------------------------|--------------------------||
 B||-----------0-----------0--|-----------2-----------2--||
 G||-----------0-----------0--|-----------2-----------2--||
 D||--------4-----------4-----|--------4-----------4-----||
 A||-----2-----------2--------|-----4-----------4--------||
 E||--0-----------0-----------|--2-----------2-----------||


Important: The song above is NOT stored on the Chordie server. The original song is hosted at www.guitartabs.cc. Chordie works as a search engine and provides on-the-fly formatting. Chordie does not index songs against artists'/composers' will. To remove this song please click here.

Text color:
Chord color:
Chord grids: 
Font size:    
Page size: 

A Bm D Em Emadd9 F#m G Gmaj7
Rate #1 of 14 versions

Jango Player

Login - add to songbook

SHARE PAGE  




You need to log in to post comments