Guitar Tabs, Chords and Lyrics
Update 25:10. 13:00. Site is back up running again. Songbooks are recovered. Woring on getting search back up..


Barbedwired Baby√Ę??s Dream   Dizzy Mizz Lizzy

 
 |--------------|-----------------------------------------|-------------------------------------|
 |--------------|-----------------------------------------|-------------------------------------|
 |--------------|-------------------------------------5---|-(5)-5---x-5-------7-7-7-7-(7)-7-7-7-|
 |-----------12-|-(12)-12---x-12-------10-----9-(9)---5---|-(5)-5---x-5-------7-7-7-7-(7)-7-7-7-|
 |-----------10-|-(10)-10---x-10-------10-----9-(9)---0---|-(0)-0---x-0-------0-0-0-0-(0)-0-0-0-|
 |------------8-|--(8)--8---x--8--------8-----7-(7)---5---|-(5)-5---x-5-------7-7-7-7-(7)-7-7-7-|
 PM--| PM--| PM--| PM----|

 


 S S S S E S S +S S E S S S S +S S S S E S S S E S S S S S


 

 
 |-----------------------------------|------------------------------------|
 |-----------------------------------|------------------------------------|
 |-----------------------------------|------------------------------------|
 |-7h9p7s5-7-----5-(5)---------------|---------------------------------12-|
 |-------------7-------5-7---------5-|-(5)-------5---------5-----------10-|
 |---------------------------5-6-7---|-----5-6-7-----5-6-7-----5-6-7-5--8-|

 


 


 


 +S E S Q E. S +E E S E S Q E. S +E E


 

 
 |------------------------------------------|---------------------------------------|
 |------------------------------------------|---------------------------------------|
 |------------------------------------------|-------------------9-----10-(10)---9---|
 |-(12)-12---x-12-------10-----9-(9)---12---|-x-12---x-12-------7------8--(8)---9---|
 |-(10)-10---x-10-------10-----9-(9)---10---|-x-10---x-10-------7------8--(8)---7---|
 |--(8)--8---x--8--------8-----7-(7)----8---|-x--8---x--8---------------------------|

 


 


 


 S e S Q E. S +E E +W


 

 
 |------------------------------------|-----------------------------------|
 |------------------------------------|-----------------------------------|
 |-x-9---x-9--------------------------|-----------------------------------|
 |-x-9---x-9--------------------------|-----------------------------------|
 |-x-7---x-7--------------5-(5)---7---|-(7)-------------------------------|
 |-----------------/7-----------------|-----------------------------------|

 


 


 PM----|


 S E S E S S +S S E S S S S


 

 
 |-----------------------------------|
 |-----------------------------------|
 |-----------------------------------|
 |-7-9---5-7-----5-(5)---------------|
 |-------------7-------5-7---------5-|
 |---------------------------5-6-7---|

 


 


 


 1st Verse:


 PM PM


 Q E E +E E Q Q E E +E E Q


 

 
 ||----------------------------------------|-------------------------------------|
 ||o---------------------------------------|-------------------------------------|
 ||----------------------------------------|-------------------------------------|
 ||--9-------9---10---(10)---10---10-------|-10-------10---9---(9)---9---9-------|
 ||o-7-------7----7----(7)----7----7-------|--9--------9---9---(9)---9---9-------|
 ||----------------------------------------|-------------------------------------|

 


 ...lost inside a dream...


 


 1.


 PM PM


 Q E E +E E Q E E E E +E E Q


 

 
 |---------------------------------------|---------------------------------------||
 |---------------------------------------|--------------------------------------o||
 |---------------------------------------|---------------------------------------||
 |-9-------9---10---(10)---10---10-------|-10---12---10---9---(9)---9---9--------||
 |-7-------7----7----(7)----7----7-------|--9----9----9---9---(9)---9---9-------o||
 |---------------------------------------|---------------------------------------||

 


 


 2.


 E E E E +E E E. S


 

 
 |----------------------------------------||
 |----------------------------------------||
 |----------------------------------------||
 |-10---12---10---9---(9)---x---x/-----12-||
 |--9----9----9---9---(9)---x---x/-----10-||
 |--------------------------x---x/------8-||

 


 


 


 Chorus:


 +S E S Q E. S +E E +S e S Q S S S S +S S S S


 

 
 |-----------------------------------------|-------------------------------------|
 |-----------------------------------------|-------------------------------------|
 |-------------------------------------5---|-(5)-5---x-5-------7-7-7-7-(7)-7-7-7-|
 |-(12)-12---x-12-------10-----9-(9)---5---|-(5)-5---x-5-------7-7-7-7-(7)-7-7-7-|
 |-(10)-10---x-10-------10-----9-(9)---0---|-(0)-0---x-0-------0-0-0-0-(0)-0-0-0-|
 |--(8)--8---x--8--------8-----7-(7)---5---|-(5)-5---x-5-------7-7-7-7-(7)-7-7-7-|
 PM--| PM--| PM--| PM----|

 


 S S S S E S S +S S E S S S S +S S S S E S S S E S S S S S


 

 
 |-----------------------------------|------------------------------------|
 |-----------------------------------|------------------------------------|
 |-----------------------------------|------------------------------------|
 |-7h9p7s5-7-----5-(5)---------------|---------------------------------12-|
 |-------------7-------5-7---------5-|-(5)-------5---------5-----------10-|
 |---------------------------5-6-7---|-----5-6-7-----5-6-7-----5-6-7-5--8-|

 


 


 


 +S E S Q E. S +E E S e S Q S S S S +S S S S


 

 
 |-----------------------------------------|-----------------------------------|
 |-----------------------------------------|-----------------------------------|
 |-------------------------------------5---|-x-5---x-5-------5-5-5-5-(5)-5-5-5-|
 |-(12)-12---x-12-------10-----9-(9)---5---|-x-5---x-5-------5-5-5-5-(5)-5-5-5-|
 |-(10)-10---x-10-------10-----9-(9)---0---|-x-0---x-0-------0-0-0-0-(0)-0-0-0-|
 |--(8)--8---x--8--------8-----7-(7)---5---|-x-5---x-5-------5-5-5-5-(5)-5-5-5-|

 


 


 


 Q Q E E E E +Q Q E. S +E E


 

 
 |----------------------------------|----------------------------------------||
 |----------------------------------|----------------------------------------||
 |----------------------------------|----------------------------------------||
 |-5-------5-------9---9---9---10---|-(10)-------10-------10-----9-(9)---7---||
 |-5-------5-------9---9---9---10---|-(10)-------10-------10-----9-(9)---7---||
 |-3-------3-------7---7---7----8---|--(8)--------8--------8-----7-(7)---5---||

 


 


 


 __________________


 |1st Chorus ending:


 Q Q E E E E +W


 

 
 |---------------------------------|-----------------------------------|
 |---------------------------------|-----------------------------------|
 |---------------------------------|-----------------------------------|
 |-5-------5-------9---9-----------|-----------------------------------|
 |-5-------5-------9---9-------7---|-(7)-------------------------------|
 |-3-------3-------7---7-------0---|-(0)-------------------------------|

 


 


 PM----|


 S E S E S S +S S E S S S S


 

 
 |-----------------------------------|
 |-----------------------------------|
 |-----------------------------------|
 |-7-9---5-7-----5-(5)---------------|
 |-------------7-------5-7---------5-|
 |---------------------------5-6-7---|

 


 


 


 __________________


 |2nd Chorus ending:


 Q Q E E E E +W


 

 
 |---------------------------------|-----------------------------------|
 |---------------------------------|-----------------------------------|
 |---------------------------------|-----------------------------------|
 |-5-------5-------9---9-----------|-----------------------------------|
 |-5-------5-------9---9-------7---|-(7)-------------------------------|
 |-3-------3-------7---7-------0---|-(0)-------------------------------|

 


 


 +H. Q


 

 
 |------------------------------------|
 |------------------------------------|
 |------------------------------------|
 |------------------------------------|
 |-(7)--------------------------------|
 |-(0)-----------------------7\-------|

 


 


 


 __________________


 |3rd Chorus ending:


 Q Q E E E E +Q E S S E. S +E E


 

 
 ||-----------------------------------|-------------------------------------------||
 ||o----------------------------------|------------------------------------------o||
 ||-----------------------------------|-------------------------------------------||
 ||--5-------5-------9---9---9---10---|-(10)-------10---10-10-10-----9-(9)---7----||
 ||o-5-------5-------9---9---9---10---|-(10)-------10---10-10-10-----9-(9)---7---o||
 ||--3-------3-------7---7---7----8---|--(8)--------8----8--8--8-----7-(7)---5----||

 


 


 Q Q E E E E H H


 

 
 |---------------------------------|---------------------------------|
 |---------------------------------|---------------------------------|
 |---------------------------------|---------------------------------|
 |-5-------5-------9---9---9-------|-6-------------------------------|
 |-5-------5-------9---9---9---7---|-7-------------------------------|
 |-3-------3-------7---7---7---0---|---------------------------------|

 


 


 


 


 2nd Verse:


 similar to 1st Verse


 


 


 2nd Chorus


 


 


 Interlude:


 [6/4]Gtrs I, II


 

 
 PM--------| PM--------| PM--------|

 


 S E S +S S S S +S E S S E S +S S E +S E.


 

 
 ||-----------------------------------------------------------|
 ||o----------------------------------------------------------|
 ||-----------------------------------------------------------|
 ||-----------------------------------------------------------|
 ||o----------------------------------------------------------|
 ||--3-0---0-(0)-0-7-0-(0)-0---0-12-0---0-(0)-0-6---(6)-5-----|

 


 


 [4/4]  

 
 PM--------| PM----|

 


 S E S +S S S S +S S E +S E.


 

 
 |----------------------------------------||
 |---------------------------------------o||
 |----------------------------------------|| *Play all the bottom notes plam muted
 |----------------------------------------|| but keep the melody notes free
 |---------------------------------------o||
 |-3-0---0-(0)-0-7-0-(0)-0-6---(6)-5------||

 


 


 


 [6/4]  

 
 PM--------| PM--------| PM--------|

 


 S E S +S S S S +S E S S E S +S S E +S E.


 

 
 |---------------------------------------------------------|
 |---------------------------------------------------------|
 |---------------------------------------------------------|
 |-----------------------------2---------------------------|
 |---------------2-----------------------------------------|
 |-3-2---2-(2)-2---2-(2)-2---2---2---2-(2)-2-6---(6)-5-----|

 


 


 [4/4]  

 
 PM--------| PM----|

 


 S E S +S S S S +S S E +S E.


 

 
 |---------------------------------------|
 |---------------------------------------|
 |---------------------------------------| *Here are the bottom notes lifted a tone
 |---------------------------------------| - the melody notes are the same
 |---------------2-----------------------|
 |-3-2---2-(2)-2---2-(2)-2-6---(6)-5-----|

 


 


 


 [6/4]  

 
 PM--------| PM--------| PM--------|

 


 S E S +S S S S +S E S S E S +S S E +S E.


 

 
 |----------------------------------------------------------|
 |----------------------------------------------------------|
 |----------------------------------------------------------|
 |----------------------------------------------------------|
 |----------------------------------------------------------|
 |-3-0---0-(0)-0-7-0-(0)-0---0-12-0---0-(0)-0-6---(6)-5-----|

 


 


 [4/4]  

 
 PM--------| PM----|

 


 S E S +S S S S +S S E +S E.


 

 
 |---------------------------------------|
 |---------------------------------------|
 |---------------------------------------| *...and back down with the bottom notes
 |---------------------------------------|
 |---------------------------------------|
 |-3-0---0-(0)-0-7-0-(0)-0-6---(6)-5-----|

 


 


 


 Breakdown:


 Gtr I


 Q Q E E E E +E Q. H


 

 
 |---------------------------------|----------------------------------------------|
 |---------------------------------|----------------------------------------------|
 |-----------------------------9---|-(9)------------------------------------------|
 |-5-------5-------9---9---9---9---|-(9)------------------------------------------|
 |-5-------5-------9---9---9---7---|-(7)------------------------------------------|
 |-3-------3-------7---7---7-------|----------------------------------------------|

 


 |


 |Gtr II


 | ~~~~~~~


 | W E E +E E +S S Q


 

 
 |---------------------------------|-----------10-----(10)---10----(10)-----------|
 |---------------------------------|-----------10b12==(10)---10b12r(10)p8---------|
 |---------------------------------|-------7h9----------------------------9-------|
 |---------------------------------|----------------------------------------------|
 |---------------------------------|----------------------------------------------|
 |---------------------------------|----------------------------------------------|

 


 


 


 Q Q E E E E +E Q. H


 

 
 |---------------------------------|----------------------------------------------|
 |---------------------------------|----------------------------------------------|
 |-----------------------------9---|-(9)------------------------------------------|
 |-5-------5-------9---9---9---9---|-(9)------------------------------------------|
 |-5-------5-------9---9---9---7---|-(7)------------------------------------------|
 |-3-------3-------7---7---7-------|----------------------------------------------|

 


 |


 |


 | ~~~~~~~ ~~~~~


 | W E S S +E E S E. Q


 

 
 |---------------------------------|---------10------------------10--------------------|
 |---------------------------------|-10b12==(10)-8-(8)---10b12==(10)-8-----10b12-------|
 |---------------------------------|---------------------------------------------------|
 |---------------------------------|---------------------------------------------------|
 |---------------------------------|---------------------------------------------------|
 |---------------------------------|---------------------------------------------------|
 |-----5-----| |---5---| |-----5-----| |-------5-------|

 


 Q Q E E E E S S S S S S e E S S S S S +S S +S E


 

 
 |---------------------------------|------------------------------------------------------------------|
 |---------------------------------|---15p14p12----12-------------------------------------------------|
 |-----------------------------9---|------------14----14---13h14p13p11-14-----------------------------|
 |-5-------5-------9---9---9---9---|--------------------------------------14b16=(14)-14pb16r(14)-14---|
 |-5-------5-------9---9---9---7---|------------------------------------------------------------------|
 |-3-------3-------7---7---7-------|------------------------------------------------------------------|

 


 |


 |


 

 
 | |-----5-----| |---5---| |-----5-----| |-------5-------|

 


 | W S S S S S S e E S S S S S +S S +S E


 

 
 |---------------------------------|---15p14p13----12-------------------------------------------------|
 |---------------------------------|------------15----15---14h15p14p12-15-----------------------------|
 |---------------------------------|--------------------------------------14b16=(14)-14pb16r(14)-12---|
 |---------------------------------|------------------------------------------------------------------|
 |---------------------------------|------------------------------------------------------------------|
 |---------------------------------|------------------------------------------------------------------|

 


 


 


 Solo:


 Gtr I


 Q Q E E E E


 

 
 |---------------------------------|
 |---------------------------------|
 |-----------------------------9---|
 |-5-------5-------9---9---9---9---|
 |-5-------5-------9---9---9---7---|
 |-3-------3-------7---7---7-------|

 


 


 Gtr II


 +E E Q S S S S E S S E E E S S E S S E S S


 

 
 |---------------------------------------------|--------------------------------------------|
 |---------------------------------------------|--------------------------------------12-12-|
 |-(9)---14---14b16-----14-14-14-14-14---14-14-|-14---14---14---14-14-14---14-14-14---------|
 |-(9)-----------------------------------------|--------------------------------------------|
 |-(7)-----------------------------------------|--------------------------------------------|
 |---------------------------------------------|--------------------------------------------|

 


 *bend up all the 14's and stroke them with vibrato to give this insane sound


 


 E S S S +S e S +T T S S E S S E T T S S S S S E S S T T S S S


 

 
 |----------12----------------------------------------------|-----------------------------------------------------|
 |-------12----15b17r(15)p12------------------14------------|-15---------------12-------12------------------------|
 |-14b16---------------------14b16r(14)p12-14----12---------|------14p13p12-14-12-------12------------------------|
 |----------------------------------------------------14-14-|---------------------14-12------14-12----------------|
 |----------------------------------------------------------|--------------------------------------14s12-10-12-10-|
 |----------------------------------------------------------|-----------------------------------------------------|

 


 


 


 S S S S S S S S S S S S S S S S S S S S S S S S S S S S e S


 

 
 |-------------------------------------------------|------------------------------------------------|
 |-------------------------------------------------|------------------------------------------------|
 |-------------------------------------------------|------------------------------------------------|
 |-------------------------------------------------|------------------------------------------------|
 |-------------10-------------12-------10----------|----12-------10-------12-------10-12-12b14-10---|
 |-12-12-12-12----12-12-12-12----12-12----12-12-12-|-12----12-12----12-12----12-12------------------|

 


 


 ~~~~~~~


 E S S E S S S S S S E S S S S S S S +T T S S Q E. S


 

 
 |----------------------------------------------|-----------------------------------------------------|
 |----------------------------------------------|-----------------------------------------------------|
 |----------------------------------------------|----12-14-14-14b16r(14)p12---------------------------|
 |-----------------------------12----12---14-12-|-14------------------------14-12-14-------14\-----12-|
 |------10----10---12-10-12s14----14------------|--------------------------------------------------10-|
 |-12------12-----------------------------------|---------------------------------------------------8-|

 


 


 


 3rd Chorus


 


 


 Outro:


 Gtrs I, II


 E. S +E E S E S Q E. S +E E S E S Q


 

 
 |-----------------------------------|-----------------------------------|
 |-----------------------------------|-----------------------------------|
 |-9-----8-(8)---7-----7---x-7-------|-9-----8-(8)---7-----7---x-7-------|
 |-9-----8-(8)---5-----5---x-5-------|-9-----8-(8)---5-----5---x-5-------|
 |-7-----6-(6)-----------------------|-7-----6-(6)-----------------------|
 |-----------------------------------|-----------------------------------|

 


 


 E. S +E E S E S Q E. S +E E H


 

 
 |-----------------------------------|-------------------------------------|
 |-----------------------------------|-------------------------------------|
 |-7-----8-(8)---9-----9---x-9-------|-------------------------------------|
 |-7-----8-(8)---7-----7---x-7-------|-------------------------------------|
 |-5-----6-(6)-----------------------|--------5-(5)---7\-------------------|
 |-----------------------------------|-/7----------------------------------|


Important: The song above is NOT stored on the Chordie server. The original song is hosted at www.guitartabs.cc. Chordie works as a search engine and provides on-the-fly formatting. Chordie does not index songs against artists'/composers' will. To remove this song please click here.

This song is displayed as text-only. Transposing and tuning is only available for chordpro-songs.
Rate #2 of 2 versions

Login - add to songbook

SHARE PAGE  




You need to log in to post comments