Guitar Tabs, Chords and Lyrics
Major upgrade!! After one year development the new version of Chordie is now online! Please give feedback.


Black Fire  DragonForce

BLACK FIRE (Bassline)
As recorded by DragonForce
(From the 2003 Album VALLEY OF THE DAMNED)
Words and Music by DragonForce
Arranged by DragonForce
Gtr I (E A D G) - 'Bass'
Q=198
[1/4] Gtr [1/2]I
W E E E E E E E E E Q E E E E E Q. E Q Q Q. E Q Q
 
 |----|---------|---------|--------|---------|--------|-------|--------|-------|
 |----|-0-0-0-0-|-0-0-0-0-|---0--0-|---0-----|--------|-------|--------|-------|
 |----|---------|---------|--------|-----3-0-|-5----5-|----3--|-5----5-|----3--|
 |----|---------|---------|--------|---------|--------|-------|--------|-------|

E E E E E E E E E Q E E E E E
 
 |---------|---------|--------|---------|
 |---------|---------|--------|---------|
 |-5-5-5-5-|-5-5-5-5-|-5-5--5-|---5-3-0-|
 |---------|---------|--------|---------|

E E E E E E E E E E E E E E S S S S
 
 |---------|---------|---------|-------------|
 |---------|---------|---------|-------------|
 |-1-1-1-1-|-1-1-1-1-|-3-3-3-3-|-3-3-3-3-3-3-|
 |---------|---------|---------|-------------|

E E E E E E E E +E Q E +E E E E
 
 |---------|---------|----------|-----------|
 |---------|---------|----------|-----------|
 |-5-5-5-5-|-5-5-5-5-|-(5)-5--5-|-(5)-5-3-0-|
 |---------|---------|----------|-----------|

Q. E +Q Q Q. E Q Q E E E E
 
 |--------|---------|--------|-------|---------|
 |--------|---------|--------|-------|---------|
 |-5----5-|-(5)--3--|-5----5-|----3--|-5-5-5-5-|
 |--------|---------|--------|-------|---------|

E E E E E Q E +E E E E E E E E E E E E E E E E E E S S S S
 
 |---------|--------|-----------|---------|---------|---------|--------------|
 |---------|--------|-----------|---------|---------|---------|--------------|
 |-5-5-5-5-|-5-5--5-|-(5)-5-3-0-|-1-1-1-1-|-1-1-1-1-|-3-3-3-3-|-3-3-3-3-3-3--|
 |---------|--------|-----------|---------|---------|---------|--------------|

[4/4] W +Q Q Q Q E E +E E E S S S S S S
 
 |----------|---------------|-------------------------|
 |----------|---------------|-------------------------|
 |-0--------|-(0)--0-----0--|-5-5-(5)-3-5-5-5-5-5-5-5-|
 |----------|---------3-----|-------------------------|

S S S S S S S S S S S S S S S S E E +E E E S S S S S S E E +E E Q Q
 
 |---------------------------------|-------------------------|-----------------|
 |---------------------------------|-------------------------|---5-(5)---5-----|
 |-5-5-5-5-5-5-5-5-5-5-5-5-5-5-5-5-|-3-3-(3)-1-3-3-3-3-3-3-3-|-3-------3----3--|
 |---------------------------------|-------------------------|-----------------|

E E +E E E S S S S S S S S S S S S S S S S S S S S S S
 
 |-------------------------|---------------------------------|
 |-------------------------|---------------------------------|
 |-5-5-(5)-3-5-5-5-5-5-5-5-|-5-5-5-5-5-5-5-5-5-5-5-5-5-5-5-5-|
 |-------------------------|---------------------------------|

E E E E E S S S S S S E E +E E Q Q E E +E E E S S S S S S
 
 |-----------------------|-----------------|-------------------------|
 |-----------------------|---5-(5)---5--5--|-------------------------|
 |-3-----1-3-3-3-3-3-3-3-|-3-------3-------|-5-5-(5)-3-5-5-5-5-5-5-5-|
 |-----------------------|-----------------|-------------------------|

S S S S S S S S S S S S S S S S E E +E E E S S S S S S E E +E E Q Q
 
 |---------------------------------|-------------------------|-----------------|
 |---------------------------------|-------------------------|---5-(5)---5-----|
 |-5-5-5-5-5-5-5-5-5-5-5-5-5-5-5-5-|-3-3-(3)-1-3-3-3-3-3-3-3-|-3-------3----3--|
 |---------------------------------|-------------------------|-----------------|

E E +E E E S S S S S S S S S S S S S S S S S S S S S S
 
 |-------------------------|---------------------------------|
 |-------------------------|---------------------------------|
 |-5-5-(5)-3-5-5-5-5-5-5-5-|-5-5-5-5-5-5-5-5-5-5-5-5-5-5-5-5-|
 |-------------------------|---------------------------------|

E E E E E S S S S S S E E +E E Q Q E E E E E E E E E E E E E E E E
 
 |-----------------------|-----------------|-----------------|------------------|
 |-----------------------|---5-(5)---5--5--|-----------------|------------------|
 |-3-----1-3-3-3-3-3-3-3-|-3-------3-------|-----------------|------------------|
 |-----------------------|-----------------|-6-6-6-6-6-6-6-6-|-6-6-6-6-6-6-6-6--|

E S S S S S S S S S S S S S S S S S S S S S S S S S S S S S S
 
 |-------------------------------|---------------------------------|
 |-------------------------------|---------------------------------|
 |-5-5-5-5-5-5-5-5-5-5-5-5-5-5-5-|-5-5-5-5-5-5-5-5-5-5-5-5-5-5-5-5-|
 |-------------------------------|---------------------------------|

E E E E E E E E E E E E E E E E W +W
 
 |-----------------|-----------------|----------|--------|
 |-----------------|-----------------|----------|--------|
 |-----------------|-----------------|----------|--------|
 |-6-6-6-6-6-6-6-6-|-6-6-6-6-6-6-6-6-|-5--------|-(5)----|

E E +E E E S S S S S S S S S S S S S S S S S S S S S S
 
 |-------------------------|---------------------------------|
 |-------------------------|---------------------------------|
 |-5-5-(5)-3-5-5-5-5-5-5-5-|-5-5-5-5-5-5-5-5-5-5-5-5-5-5-5-5-|
 |-------------------------|---------------------------------|

E E +E E E S S S S S S E E +E E Q Q E E +E E E S S S S S S
 
 |-------------------------|-----------------|-------------------------|
 |-------------------------|---5-(5)---5-----|-------------------------|
 |-3-3-(3)-1-3-3-3-3-3-3-3-|-3-------3----3--|-5-5-(5)-3-5-5-5-5-5-5-5-|
 |-------------------------|-----------------|-------------------------|

S S S S S S S S S S S S S S S S E E +E E E S S S S S S E E +E E Q Q
 
 |---------------------------------|-------------------------|-----------------|
 |---------------------------------|-------------------------|---5-(5)---5--5--|
 |-5-5-5-5-5-5-5-5-5-5-5-5-5-5-5-5-|-3-3-(3)-1-3-3-3-3-3-3-3-|-3-------3-------|
 |---------------------------------|-------------------------|-----------------|

E E E E E E E E E E E E E E E E E S S S S S S S S S S S S S S
 
 |-----------------|-----------------|-------------------------------|
 |-----------------|-----------------|-------------------------------|
 |-----------------|-----------------|-5-5-5-5-5-5-5-5-5-5-5-5-5-5-5-|
 |-6-6-6-6-6-6-6-6-|-6-6-6-6-6-6-6-6-|-------------------------------|

S S S S S S S S S S S S S S S S E E E E E E E E E E E E E E E E
 
 |---------------------------------|-----------------|------------------|
 |---------------------------------|-----------------|------------------|
 |-5-5-5-5-5-5-5-5-5-5-5-5-5-5-5-5-|-----------------|------------------|
 |---------------------------------|-6-6-6-6-6-6-6-6-|-6-6-6-6-6-6-6-6--|

W +W E S S S S S S S S S S S S S S
 
 |----------|------------|-------------------------------|
 |----------|------------|-------------------------------|
 |----------|------------|-5-5-5-5-5-5-5-5-5-5-5-5-5-5-5-|
 |-5--------|-(5)--------|-------------------------------|

S S S S S S S S S S S S S S S S W W
 
 |---------------------------------|----------|------|
 |---------------------------------|----------|------|
 |-5-5-5-5-5-5-5-5-5-5-5-5-5-5-5-5-|----------|------|
 |---------------------------------|-6--------|-8----|

E S S S S S S S S S S S S S S
 
 |----------------------------------------------|
 |----------------------------------------------|
 |----------------------------------------------|
 |-10-10-10-10-10-10-10-10-10-10-10-10-10-10-10-|

S S S S S S S S S S S S S S S S
 
 |-------------------------------------------------|
 |-------------------------------------------------|
 |-------------------------------------------------|
 |-10-10-10-10-10-10-10-10-10-10-10-10-10-10-10-10-|

W W W W
 
 |----------|----------|----------|------|
 |----------|----------|----------|------|
 |-8--------|----------|----------|-5----|
 |----------|-8--------|-3--------|------|

W W E S S E S S E S S E S S
 
 |----------|----------|-------------------------|
 |----------|----------|-------------------------|
 |-3--------|----------|-1-1-1-1-1-1-1-1-1-1-1-1-|
 |----------|-1--------|-------------------------|

E S S E S S E S S E S S E S S S S S S S S S S S S S S H H
 
 |-------------------------|-------------------------------|-----------|
 |-------------------------|-------------------------------|-----------|
 |-1-1-1-1-1-1-1-1-1-1-1-1-|-0-0-0-0-0-0-0-0-0-0-0-0-0-0-0-|-0---------|
 |-------------------------|-------------------------------|-----------|

E S S S S S S S S S S S S S S S S S S S S S S S S S S S S S S
 
 |-------------------------------|---------------------------------|
 |-0-0-0-0-0-0-0-0-0-0-0-0-0-0-0-|-0-0-0-0-0-0-0-0-0-0-0-0-0-0-0-0-|
 |-------------------------------|---------------------------------|
 |-------------------------------|---------------------------------|

W W E S S S S S S S S S S S S S S
 
 |----------|----------|-------------------------------|
 |----------|----------|-------------------------------|
 |-1--------|-3--------|-5-5-5-5-5-5-5-5-5-5-5-5-5-5-5-|
 |----------|----------|-------------------------------|

S S S S S S S S S S S S S S S S W W
 
 |---------------------------------|----------|------|
 |---------------------------------|----------|------|
 |-5-5-5-5-5-5-5-5-5-5-5-5-5-5-5-5-|----------|------|
 |---------------------------------|-6--------|-8----|

E E +E E E S S S S S S
 
 |-----------------------------------|
 |-----------------------------------|
 |-----------------------------------|
 |-10-10-(10)-8-10-10-10-10-10-10-10-|

S S S S S S S S S S S S S S S S
 
 |-------------------------------------------------|
 |-------------------------------------------------|
 |-------------------------------------------------|
 |-10-10-10-10-10-10-10-10-10-10-10-10-10-10-10-10-|

E E +E E E S S S S S S E E +E E Q Q
 
 |-------------------------|--------------------|
 |-------------------------|--------------------|
 |-------------------------|---10-(10)---10-----|
 |-8-8-(8)-6-8-8-8-8-8-8-8-|-8---------8-----8--|

E E +E E E S S S S S S
 
 |-----------------------------------|
 |-----------------------------------|
 |-----------------------------------|
 |-10-10-(10)-8-10-10-10-10-10-10-10-|

S S S S S S S S S S S S S S S S
 
 |-------------------------------------------------|
 |-------------------------------------------------|
 |-------------------------------------------------|
 |-10-10-10-10-10-10-10-10-10-10-10-10-10-10-10-10-|

E E +E E E S S S S S S E E +E E Q Q
 
 |-------------------------|---------------------|
 |-------------------------|---------------------|
 |-------------------------|---10-(10)---10--10--|
 |-8-8-(8)-6-8-8-8-8-8-8-8-|-8---------8---------|

W +W E S S S S S S S S S S S S S S
 
 |----------|------------|-------------------------------|
 |----------|------------|-------------------------------|
 |----------|------------|-5-5-5-5-5-5-5-5-5-5-5-5-5-5-5-|
 |-6--------|-(6)--------|-------------------------------|

S S S S S S S S S S S S S S S S W +W
 
 |---------------------------------|----------|--------|
 |---------------------------------|----------|--------|
 |-5-5-5-5-5-5-5-5-5-5-5-5-5-5-5-5-|----------|--------|
 |---------------------------------|-6--------|-(6)----|

W S S S S S S S S S S S S S S S S
 
 |----------|---------------------------------|
 |----------|-7-7-7-7-7-7-7-7-7-7-7-7-7-7-7-7-|
 |----------|---------------------------------|
 |-5--------|---------------------------------|

E S S S S S S S S S S S S S S S S S S S S S S S S S S S S S S
 
 |-------------------------------|---------------------------------|
 |-------------------------------|---------------------------------|
 |-5-5-5-5-5-5-5-5-5-5-5-5-5-5-5-|-5-5-5-5-5-5-5-5-5-5-5-5-5-5-5-5-|
 |-------------------------------|---------------------------------|

W W E S S S S S S S S S S S S S S
 
 |----------|----------|----------------------------------------------|
 |----------|----------|----------------------------------------------|
 |----------|----------|----------------------------------------------|
 |-6--------|-8--------|-10-10-10-10-10-10-10-10-10-10-10-10-10-10-10-|

S S S S S S S S S S S S S S S S W W
 
 |-------------------------------------------------|----------|------|
 |-------------------------------------------------|----------|------|
 |-------------------------------------------------|-8--------|------|
 |-10-10-10-10-10-10-10-10-10-10-10-10-10-10-10-10-|----------|-8----|

W W W W
 
 |----------|----------|----------|------|
 |----------|----------|----------|------|
 |----------|-5--------|-3--------|------|
 |-3--------|----------|----------|-1----|

E S S E S S E S S E S S E S S E S S E S S E S S
 
 |-------------------------|-------------------------|
 |-------------------------|-------------------------|
 |-1-1-1-1-1-1-1-1-1-1-1-1-|-1-1-1-1-1-1-1-1-1-1-1-1-|
 |-------------------------|-------------------------|

E S S S S S S S S S S S S S S H H
 
 |-------------------------------|-----------|
 |-------------------------------|-----------|
 |-0-0-0-0-0-0-0-0-0-0-0-0-0-0-0-|-0---------|
 |-------------------------------|-----------|

( Tab from: http://www.guitartabs.cc/tabs/d/dragonforce/black_fire_btab_ver_2.html )
E S S S S S S S S S S S S S S S S S S S S S S S S S S S S S S
 
 ||--------------------------------|--------------------------------|
 ||o-0-0-0-0-0-0-0-0-0-0-0-0-0-0-0-|-0-0-0-0-0-0-0-0-0-0-0-0-0-0-0-0|
 ||o-------------------------------|--------------------------------|
 ||--------------------------------|--------------------------------|

Q=137
W W Q Q Q Q Q Q Q Q
 
 |----------|-----------||-------------|-------------|
 |----------|----------o||----7-----7--|----7-----7--|
 |-1--------|-3--------o||-5-----5-----|-5-----5-----|
 |----------|-----------||-------------|-------------|

Q Q Q Q Q Q Q Q Q Q Q Q Q Q Q Q
 
 |-------------|-------------|-------------|-------------|
 |----7-----7--|----7-----7--|----7-----7--|----7-----7--|
 |-5-----5-----|-5-----5-----|-5-----5-----|-5-----5-----|
 |-------------|-------------|-------------|-------------|

Q Q Q Q Q Q Q Q Q Q Q Q Q Q Q Q
 
 |-------------|-------------|-------------|-------------|
 |----7-----7--|----7-----7--|----7-----7--|----7-----7--|
 |-5-----5-----|-5-----5-----|-5-----5-----|-5-----5-----|
 |-------------|-------------|-------------|-------------|

Q Q Q Q Q Q Q Q Q Q Q Q Q Q Q Q
 
 |-------------|-------------|-------------|-------------|
 |----7-----7--|----7-----7--|----7-----7--|----7-----7--|
 |-5-----5-----|-5-----5-----|-5-----5-----|-5-----5-----|
 |-------------|-------------|-------------|-------------|

Q Q Q Q Q Q Q Q Q Q Q Q Q Q Q Q
 
 |-------------|-------------|-------------|-------------|
 |----7-----7--|----7-----7--|----7-----7--|----7-----7--|
 |-5-----5-----|-5-----5-----|-5-----5-----|-5-----5-----|
 |-------------|-------------|-------------|-------------|

Q Q Q Q Q Q Q Q W W
 
 |-------------|-------------|----------|------|
 |----7-----7--|----7-----7--|----------|------|
 |-5-----5-----|-5-----5-----|-5--------|-3----|
 |-------------|-------------|----------|------|

W W W W
 
 |----------|----------|----------|------|
 |----------|----------|----------|------|
 |----------|-3--------|-5--------|------|
 |-1--------|----------|----------|-1----|

Q=198
E S S E S S E S S E S S E S S E S S E S S E S S
 
 |-------------------------|-------------------------|
 |-------------------------|-------------------------|
 |-1-1-1-1-1-1-1-1-1-1-1-1-|-1-1-1-1-1-1-1-1-1-1-1-1-|
 |-------------------------|-------------------------|

E S S S S S S S S S S S S S S H H E E +E E E S S S S S S
 
 |-------------------------------|-----------|--------------------------|
 |-------------------------------|-----------|-0-0-(0)------------------|
 |-0-0-0-0-0-0-0-0-0-0-0-0-0-0-0-|-0---------|---------3-5-5-5-5-5-5-5--|
 |-------------------------------|-----------|--------------------------|

S S S S S S S S S S S S S S S S E E +E E E S S S S S S E E +E E Q Q
 
 |---------------------------------|-------------------------|-----------------|
 |---------------------------------|-------------------------|---5-(5)---5-----|
 |-5-5-5-5-5-5-5-5-5-5-5-5-5-5-5-5-|-3-3-(3)-1-3-3-3-3-3-3-3-|-3-------3----3--|
 |---------------------------------|-------------------------|-----------------|

E E +E E E S S S S S S S S S S S S S S S S S S S S S S
 
 |-------------------------|---------------------------------|
 |-------------------------|---------------------------------|
 |-5-5-(5)-3-5-5-5-5-5-5-5-|-5-5-5-5-5-5-5-5-5-5-5-5-5-5-5-5-|
 |-------------------------|---------------------------------|

E E +E E E S S S S S S E E +E E Q Q W +W
 
 |-------------------------|-----------------|----------|--------|
 |-------------------------|---5-(5)---5--5--|----------|--------|
 |-3-3-(3)-1-3-3-3-3-3-3-3-|-3-------3-------|----------|--------|
 |-------------------------|-----------------|-6--------|-(6)----|

E S S S S S S S S S S S S S S S S S S S S S S S S S S S S S S
 
 |-------------------------------|---------------------------------|
 |-------------------------------|---------------------------------|
 |-5-5-5-5-5-5-5-5-5-5-5-5-5-5-5-|-5-5-5-5-5-5-5-5-5-5-5-5-5-5-5-5-|
 |-------------------------------|---------------------------------|

W +W W W
 
 |----------|------------|----------|------|
 |----------|------------|----------|------|
 |----------|------------|----------|------|
 |-6--------|-(6)--------|-5--------|------|

W W W W
 
 |----------|----------|----------|------|
 |----------|----------|----------|------|
 |-5--------|-3--------|----------|------|
 |----------|----------|-1--------|-3----|

W W W W
 
 |----------|----------|----------|------|
 |----------|----------|----------|------|
 |-1--------|-0--------|----------|-3----|
 |----------|----------|-3--------|------|

Q. E +Q E E +Q S S E E E E E
 
 |-----------------|--------------------|
 |-----------------|--------------------|
 |-1----3-(3)--3-5-|-(5)--5-5-5-5-5-5-5-|
 |-----------------|--------------------|

Q. E +Q E E +Q S S E E E E E
 
 |------------------|----------------------------|
 |------------------|----------------------------|
 |------------------|----------------------------|
 |-6----8-(8)--8-10-|-(10)--10-10-10-10-10-10-10-|

Q. E +Q E E +Q E E E E E E +H. E E +W
 
 |------------------|------------------------|--------------|--------|
 |------------------|------------------------|--------------|--------|
 |------------------|------------------------|----------3-3-|-(3)----|
 |-6----8-(8)--8-10-|-(10)--10-10-10-10-10-3-|-(3)----------|--------|

W +W E S S S S S S S S S S S S S S
 
 |----------|------------|-------------------------------|
 |----------|------------|-0-0-0-0-0-0-0-0-0-0-0-0-0-0-0-|
 |-1--------|-(1)--------|-------------------------------|
 |----------|------------|-------------------------------|

S S S S S S S S S S S S S S S S W +W
 
 |---------------------------------|----------|--------|
 |-0-0-0-0-0-0-0-0-0-0-0-0-0-0-0-0-|----------|--------|
 |---------------------------------|-1--------|-(1)----|
 |---------------------------------|----------|--------|

W +W E S S S S S S S S S S S S S S
 
 |----------|------------|-------------------------------|
 |----------|------------|-0-0-0-0-0-0-0-0-0-0-0-0-0-0-0-|
 |-0--------|-(0)--------|-------------------------------|
 |----------|------------|-------------------------------|

E S S S S S S S S S S S S S S W W
 
 |-------------------------------|----------|------|
 |-0-0-0-0-0-0-0-0-0-0-0-0-0-0-0-|----------|------|
 |-------------------------------|-1--------|-3----|
 |-------------------------------|----------|------|

E S S S S S S S S S S S S S S E S S S S S S S S S S S S S S
 
 |-------------------------------|--------------------------------|
 |-------------------------------|--------------------------------|
 |-5-5-5-5-5-5-5-5-5-5-5-5-5-5-5-|-5-5-5-5-5-5-5-5-5-5-5-5-5-5-5--|
 |-------------------------------|--------------------------------|

W W W W
 
 |----------|----------|----------|------|
 |----------|----------|----------|------|
 |----------|-3--------|----------|-5----|
 |-1--------|----------|-3--------|------|

W W E S S S S S S S S S S S S S S
 
 |----------|----------|-------------------------------|
 |----------|----------|-------------------------------|
 |-3--------|-1--------|-1-1-1-1-1-1-1-1-1-1-1-1-1-1-1-|
 |----------|----------|-------------------------------|

E S S S S S S S S S S S S S S E S S S S S S S S S S S S S S
 
 |-------------------------------|--------------------------------|
 |-------------------------------|--------------------------------|
 |-1-1-1-1-1-1-1-1-1-1-1-1-1-1-1-|-0-0-0-0-0-0-0-0-0-0-0-0-0-0-0--|
 |-------------------------------|--------------------------------|

W W +W W
 
 |----------|----------|------------|------|
 |----------|-0--------|-(0)--------|------|
 |-0--------|----------|------------|------|
 |----------|----------|------------|-1----|

+W W +W W
 
 |------------|----------|------------|------|
 |------------|----------|------------|------|
 |------------|-3--------|-(3)--------|-5----|
 |-(1)--------|----------|------------|------|

+W W +W W
 
 |------------|----------|------------|------|
 |------------|----------|------------|------|
 |-(5)--------|-5--------|-(5)--------|------|
 |------------|----------|------------|-1----|

+W W +W W
 
 |------------|----------|------------|------|
 |------------|----------|------------|------|
 |------------|-1--------|-(1)--------|-3----|
 |-(1)--------|----------|------------|------|

W E E E E E E E E E E E E E E E E
 
 |-5--------|-----------------|-----------------|
 |----------|-----------------|-----------------|
 |----------|-----------------|-----------------|
 |----------|-6-6-6-6-6-6-6-6-|-6-6-6-6-6-6-6-6-|

E S S S S S S S S S S S S S S S S S S S S S S S S S S S S S S
 
 |-------------------------------|---------------------------------|
 |-------------------------------|---------------------------------|
 |-5-5-5-5-5-5-5-5-5-5-5-5-5-5-5-|-5-5-5-5-5-5-5-5-5-5-5-5-5-5-5-5-|
 |-------------------------------|---------------------------------|

E E E E E E E E E E E E E E E E W +W
 
 |-----------------|-----------------|----------|--------|
 |-----------------|-----------------|----------|--------|
 |-----------------|-----------------|----------|--------|
 |-6-6-6-6-6-6-6-6-|-6-6-6-6-6-6-6-6-|-5--------|-(5)----|

E S S S S S S S S S S S S S S S S S S S S S S S S S S S S S S
 
 |-------------------------------|---------------------------------|
 |-------------------------------|---------------------------------|
 |-5-5-5-5-5-5-5-5-5-5-5-5-5-5-5-|-5-5-5-5-5-5-5-5-5-5-5-5-5-5-5-5-|
 |-------------------------------|---------------------------------|

W W E S S S S S S S S S S S S S S
 
 |----------|----------|----------------------------------------------|
 |----------|----------|----------------------------------------------|
 |----------|----------|----------------------------------------------|
 |-6--------|-8--------|-10-10-10-10-10-10-10-10-10-10-10-10-10-10-10-|

S S S S S S S S S S S S S S S S W W
 
 |-------------------------------------------------|----------|------|
 |-------------------------------------------------|----------|------|
 |-------------------------------------------------|-8--------|------|
 |-10-10-10-10-10-10-10-10-10-10-10-10-10-10-10-10-|----------|-8----|

W W W W
 
 |----------|----------|----------|------|
 |----------|----------|----------|------|
 |----------|-5--------|-3--------|------|
 |-3--------|----------|----------|-1----|

E S S E S S E S S E S S E S S E S S E S S E S S
 
 |-------------------------|-------------------------|
 |-------------------------|-------------------------|
 |-1-1-1-1-1-1-1-1-1-1-1-1-|-1-1-1-1-1-1-1-1-1-1-1-1-|
 |-------------------------|-------------------------|

E S S S S S S S S S S S S S S H H [1/2] E E E E E E E E E Q E
 
 |-------------------------------|-----------|---------|---------|---------|
 |-------------------------------|-----------|-0-0-0-0-|-0-0-0-0-|---0--0--|
 |-0-0-0-0-0-0-0-0-0-0-0-0-0-0-0-|-0---------|---------|---------|---------|
 |-------------------------------|-----------|---------|---------|---------|

E E E E Q. E Q Q Q. E Q Q
 
 |---------|--------|-------|--------|-------|
 |---0-----|--------|-------|--------|-------|
 |-----3-0-|-5----5-|----3--|-5----5-|----3--|
 |---------|--------|-------|--------|-------|

E E E E E E E E E Q E E E E E
 
 |---------|---------|--------|---------|
 |---------|---------|--------|---------|
 |-5-5-5-5-|-5-5-5-5-|-5-5--5-|---5-3-0-|
 |---------|---------|--------|---------|

E E E E E E E E E E E E E E S S S S
 
 |---------|---------|---------|-------------|
 |---------|---------|---------|-------------|
 |-1-1-1-1-|-1-1-1-1-|-3-3-3-3-|-3-3-3-3-3-3-|
 |---------|---------|---------|-------------|

E E E E E E E E E Q E E E E E
 
 |---------|---------|--------|---------|
 |---------|---------|--------|---------|
 |-5-5-5-5-|-5-5-5-5-|---5--5-|---5-3-0-|
 |---------|---------|--------|---------|

Q. E Q Q Q. E Q Q E E E E
 
 |--------|-------|--------|-------|---------|
 |--------|-------|--------|-------|---------|
 |-5----5-|----3--|-5----5-|----3--|-5-5-5-5-|
 |--------|-------|--------|-------|---------|

E E E E E Q E E E E E E E E E
 
 |---------|--------|---------|---------|
 |---------|--------|---------|---------|
 |-5-5-5-5-|-5-5--5-|---5-3-0-|-1-1-1-1-|
 |---------|--------|---------|---------|

E E E E E E E E E E S S S S [4/4] W +Q Q Q Q
 
 |---------|---------|-------------|----------|---------------|
 |---------|---------|-------------|----------|---------------|
 |-1-1-1-1-|-3-3-3-3-|-3-3-3-3-3-3-|-0--------|-(0)--0-----0--|
 |---------|---------|-------------|----------|---------3-----|

[E] [E] [+E] [E] [B]  
 
 |----------------*|
 |----------------*|
 |-5-5-(5)-3-5----*|
 |----------------*|

Duration Legend
 
 ---------------
 W - whole; H - half; Q - quarter; E - 8th; S - 16th; T - 32nd; X - 64th; a - acciaccatura

+ - note tied to previous; . - note dotted; .. - note double dotted
Uncapitalized letters represent notes that are staccato (1/2 duration)
Irregular groupings are notated above the duration line
Duration letters will always appear directly above the note/fret number it represents the
duration for. Duration letters with no fret number below them represent rests. Multi-
bar rests are notated in the form Wxn, where n is the number of bars to rest for. Low
melody durations appear below the staff
Tablature Legend
 
 ----------------

h - hammer-on
p - pull-off
b - bend
pb - pre-bend
r - bend release (if no number after the r, then release immediately)
/\ - slide into or out of (from/to "nowhere")
s - legato slide
S - shift slide
- natural harmonic
(n) - artificial harmonic
n(n) - tapped harmonic
~ - vibrato
tr - trill
T - tap
TP - trem. picking
PM - palm muting
\n/ - tremolo bar dip; n = amount to dip
\n - tremolo bar down
n/ - tremolo bar up
/n\ - tremolo bar inverted dip
= - hold bend; also acts as connecting device for hammers/pulls
- volume swell (louder/softer)
x - on rhythm slash represents muted slash
o - on rhythm slash represents single note slash
Misc Legend
 
 -----------

| - bar
|| - double bar
||o - repeat start
o|| - repeat end
*| - double bar (ending)
: - bar (freetime)
$ - Segno
& - Coda
Tempo markers - = BPM(8/16=s8/s16), where s8 = swing 8ths, s16 = swing 16ths

Important: The song above is NOT stored on the Chordie server. The original song is hosted at www.guitartabs.cc. Chordie works as a search engine and provides on-the-fly formatting. Chordie does not index songs against artists'/composers' will. To remove this song please click here.

Text color:
Chord color:
Chord grids: 
Font size:    
Page size: 

B E
Rate #1 of 2 versions

Jango Player

Login - add to songbook

SHARE PAGE  




You need to log in to post comments