Guitar Tabs, Chords and Lyrics
Server problems seems to be fixed. Chordie has been experiencing problems with songs disappearing. These issues now seems to be fixed, but still verifying the fix. If you find anything strange, please email admin@chordie.com.


Hey You  Fallulah

_______________________________
/ Fallulah /
/ Hey You /
/ The Black Cat Neighbourhood /
/______________________________/
This is the electric guitar part in this powerful song.
Verse:
[4/4]  
 
 :-----|-----------------|-----------------|-----------------|-----------------|
 :-----|-----------------|-----------------|-----------------|-----------------|
 :-----|-----------------|-----------------|-----------------|-----------------|
 :-----|-----------------|-----------------|-----------------|-----------------|
 :-5-6-|-7-5---------5-6-|-7-5---------5-6-|-7-5---------5-6-|-7-5---------5-6-|
 :-----|-----7---7-------|-----7---7-------|-----7---7-------|-----5---5-------|

"Take my heart and take it fast..."
[(3/4)]  
 
 |---------------|---------------|---------------|-----------|
 |---------------|---------------|---------------|-----------|
 |---------------|---------------|---------------|-----------|
 |---------------|---------------|---------------|-----------|
 |-7-5-------5-6-|-7-5-------5-6-|-7-5-------5-6-|-7-5-------|
 |-----7--7------|-----7--7------|-----7--7------|-----5--5--|

Pre-Chorus:
[B5] [F#5] [E5] [A5]  
 
 ||------------------|-----------------|-----------------|------------------||
 ||o-----------------|-----------------|-----------------|-----------------o||
 ||------------------|-11--------------|-9---------------|------------------||
 ||--9---------------|-11--------------|-9---------------|-7----------------||
 ||o-9---------------|--9--------------|-7---------------|-7---------------o||
 ||--7---------------|-----------------|-----------------|-5----------------||

"Hey you, what's on your mind..."
Chorus:
(Strum the chords staccato.)
B A G A 4x
 
 ||------------------|-----------------|-----------------|------------------||
 ||o-7---7---7---7---|-5---5---5---5---|-3---3---3---3---|-5---5---5---5---o||
 ||--8---8---8---8---|-6---6---6---6---|-4---4---4---4---|-6---6---6---6----||
 ||--9---9---9---9---|-7---7---7---7---|-5---5---5---5---|-7---7---7---7----||
 ||o-----------------|-----------------|-----------------|-----------------o||
 ||------------------|-----------------|-----------------|------------------||

"I'm going somewhere..."
Pre-Verse:
 
 |-----------------|-----------------|
 |-----------------|-----------------|
 |-----------------|-----------------|
 |-----------------|-----------------|
 |-----------------|-------------5-6-|
 |-5-7-7-7-5-7-7-7-|-5-7-7-7-7-------|

Verse
Pre-Chorus
Chorus
Bridge:
(Palm mute all the notes on the 7th fret on the A-string.)
[Em]  
 
 |-----------------|-----------------|-----------------|-----------------|
 |-----------------|-----------------|-----------------|-----------------|
 |-----------------|-9-9---9-9-------|-----------------|-9-9---9-9-7-----|
 |-------------9---|-------------9---|-------------9---|-------------9---|
 |-7-7---7-7-------|-----------------|-7-7---7-7-------|-----------------|
 |-----------------|-----------------|-----------------|-----------------|
 |-----------------|-----------------|-----------------|-----------------|
 |-----------------|-----------------|-----------------|-----------------|
 |-----------------|-9-9---9-9-------|-----------------|-9-9---9-9-7-----|
 |-------------9---|-------------9---|-------------9---|-------------9---|
 |-7-7---7-7-------|-----------------|-7-7---7-7-------|-----------------|
 |-----------------|-----------------|-----------------|-----------------|
 |-----------------|-----------------|-----------------|-----------------|
 |-----------------|-8---------------|-----------------|-----------------|
 |-----------------|---9---9-9-------|-----------------|-9-9---9-9-7-----|
 |-------------9---|-------------9---|-------------9---|-------------9---|
 |-7-7---7-7-------|-----------------|-7-7---7-7-------|-----------------|
 |-----------------|-----------------|-----------------|-----------------|
 |-----------------|-----------------|-----------------|-----------------|
 |-----------------|-----------------|-----------------|-----------------|
 |-----------------|-9-9---9-9-------|-----------------|-9-9---9---7-----|
 |-------------9---|-------------9---|-------------9---|-------------9---|
 |-7-7---7-7-------|-----------------|-7-7---7-7-------|-----------------|
 |-----------------|-----------------|-----------------|-----------------|
 |-----------------|-----------------|
 |-----------------|-----------------|
 |-----------------|-----------------|
 |-----------------|-----------------|
 |-2-2-2-2-4-4-4-4-|-5-5-5-5-7-7-7-7-|
 |-----------------|---------0-0-0-0-|

Chorus
Outro:
4x
 
 ||------------------|------------------||
 ||o-----------------|-----------------o||
 ||------------------|------------------||
 ||--------------9-9-|-9-9-9-7-7--------||
 ||o-9-9-9-7-7---7-7-|-7-7-7-5-5---7/9-o||
 ||--7-7-7-5-5-------|-------------5/7--||
 |-----------------|-----------------|-----------------|
 |-----------------|-----------------|-----------------|
 |-----------------|-----------------|-----------------|
 |-----------------|-----------------|-----------------|
 |-9-9-9-7-7---7/9-|-9-9-9-7-7---7/9-|-9-9-9-7-7-------|
 |-7-7-7-5-5---5/7-|-7-7-7-5-5---5/7-|-7-7-7-5-5-------|

LYRICS
**********
Take my heart and take it fast
I don't ever want it back
Nothing good has come from it
For you
Pleading for another chance
Don't you see that's what I get?
Take your life and run with it
Won't you?
You you, what's on your mind?
I can dig it out but I don't have time
I'm going somewhere
and I'm leaving you here
You can be another guy
Doesn't matter if you try
If we don't see eye to eye
Were through
And I can't be another me
I tried and failed so miserably
There is nothing more to see
For you
You you, what's on your mind?
I can dig it out but I don't have time
I'm going somewhere
and I'm leaving you here
 
 +--------------------------------------------------------------------------+

Jon Sebastian Frederiksen - 2nd /May /10
Just mail me at Maitinin@gmail.com with questions, comments and corrections!

Important: The song above is NOT stored on the Chordie server. The original song is hosted at www.guitartabs.cc. Chordie works as a search engine and provides on-the-fly formatting. Chordie does not index songs against artists'/composers' will. To remove this song please click here.

Text color:
Chord color:
Chord grids: 
Font size:    
Page size: 

A5 B5 E5 Em F#5
Rate #1 of 1 versions

Jango Player

Login - add to songbook

SHARE PAGE  



You need to log in to post comments