Guitar Tabs, Chords and Lyrics
Server problems seems to be fixed. Chordie has been experiencing problems with songs disappearing. These issues now seems to be fixed, but still verifying the fix. If you find anything strange, please email admin@chordie.com.


Drivin' Wheel  Foghat

Drivin' Wheel
By Foghat
Composers Lonesome Dave Peverett Rod Price
[Intro] 
D no 3rd C no 3rd
 
 E|----------------------|--------------------|------------------|
 B|----------------------|--------------------|------------------|
 G|----------------------|--------------------|------------------|
 D|----------12-12-------|-------12-12--------|------------10-10-|
 A|----------12-12-------|-------12-12--------|------------10-10-|
 E|-10-13-10----10-----10|-13-10----10--------|-------------8--8-|

[Csus4] [Dsus4] [D]  
 
 E|------8--8------10----|--10-10-10---------|
 B|----------------------|-------------------|
 G|-----10-10------12----|--12-12------------|
 D|-10--10-10--10--12----|--12-12-12---------|
 A|-10---------10--------|--------12---------|
 E|--8----------8--------|--------10---------|

[Main Riff] 
 
 E|----------------------|----------------------|
 B|----------------------|----------------------|
 G|----------------------|----------------------|
 D|-----------12-12------|-------12-12-----10---|
 A|-----------12-12------|-------12-12-----10---|
 E|--10-13-10~~~-10---10-|-13-10~~~-10------8---|
 E|--------8--8--------10--|-10-10-10----------|
 B|------------------------|-------------------|
 G|-------10-10--------12--|-12-12-------------|
 D|-10-10-10-10-10-----12--|-12-12-12----------|
 A|-10-10-------10---------|-------12----------|
 E|--8--8--------8---------|-------10----------|

[Pre-Cborus] 
A no 3rd G no 3rd A no 3rd G no 3rd
 
 E|---------------|-----------------|---------------|-----------------|
 B|---------------|-----------------|---------------|-----------------|
 G|-2-2----2-2----|-----------------|-2-2----2-2----|-----------------|
 D|-2-2----2-2----|-5-5-5-5-5-5-5-5-|-2-2----2-2----|-5-5-5-5-5-5-5-5-|
 A|-0-0----0-0----|-5-5-5-5-5-5-5-5-|-0-0----0-0----|-5-5-5-5-5-5-5-5-|
 E|----3-0-----3-0|-3-3-3-3-3-3-3-3-|----3-0-----3-0|-3-3-3-3-3-3-3-3-|

G G G G G G G# A A A A A A A A A Gsus G no3rd
 
 E|--------------|--------------------|------------------|------------|
 B|--------------|--------------------|------------------|------------|
 G|-2-----2------|--------------------|------------------|-5-5--------|
 D|-2-----2------|-5-5-5-5--5-5--6-7--|-7-7-7-7-7-7-7-7--|-5-5--5-5---|
 A|-0-----0------|-5-5-5-5--5-5--6-7--|-7-7-7-7-7-7-7-7--|-5-5--5-5---|
 E|---3-0---3-0--|-3-3-3-3--3-3--4-5--|-5-5-5-5-5-5-5-5--|-3-3--3-3---|

[Cborus] [Transition] Go Back
D C G Gsus G D to Riff
 
 E|-----------------|--------------||-------------------|-------------|
 B|-----------------|--------------||-------------------|-------------|
 G|-----------------|-5--5---------||-------------------|-------------|
 D|-12---10--5------|-5--5--5------||--12--12--12~~~~~~~|~(12)--------|
 A|-12---10--5------|-5--5--5------||--12--12--12~~~~~~~|~(12)--------|
 E|-10----8--3------|-3--3--3------||--10--10--10~~~~~~~|~(10)--------|

[Bridge] (x2) (x2)
G no 3rd F G A G A
 
 E|---------------|---------------||---|--------------|-----------|---|
 B|---------------|---------------||---|--------------|-----------|---|
 G|---------------|---------------||---|--------------|-----------|---|
 D|-5-5-5-5--5--3/|-5-5-5-5--5--5-||-5/|-7-7-7-7-7--5/|-7-7-7-7-7-|-3/|
 A|-5-5-5-5--5--3/|-5-5-5-5--5--5-||-5/|-7-7-7-7-7--5/|-7-7-7-7-7-|-3/|
 E|-3-3-3-3--3--1/|-3-3-3-3--3--3-||-3/|-5-5-5-5-5--3/|-5-5-5-5-5-|-1/|

[Transition] 2nd Guitar
 
 E|----------------|----------------|----------------|----------------|
 B|----------------|----------------|----------------|----------------|
 G|----------------|----------------|--6-----4-------|----------------|
 D|--7-----5-------|----------------|--7-----5---7---|--5-------------|
 A|-------------7--|--5-----3-------|------------7---|--5-----3-------|
 E|----------------|------------5---|----------------|------------5---|

[Transition] 
 
 E|------------------|-------------------|
 B|---15------13-----|--10--8----6-5-3---|
 G|------------------|-------------------|
 D|------------------|-------------------|
 A|------------------|-------------------|
 E|------------------|-------------------|

You're My Drivin' Wheel
[Riff Variations] 
 
 E|----------------|-------------------|----------------------|
 B|-------3--------|------------3------|----------------------|
 G|-------2---5----|4---2-------2------|-------10-10------12--|
 D|-0-3-0---0-0-0--|0-0-0-0-3-4-0-10-10|-10-10-10-10-10---12--|
 A|----------------|--------------10-10|-10-10-------10-------|
 E|----------------|---------------8--8|--8--8--------8-------|
 E|-------------------|------------------|-------------------------|
 B|-------------------|------------------|-------------------------|
 G|-12--12------------|2-2-4-4-5-5-4-4---|2-2-24-4-5-5-4-----------|
 D|-12--12---12-------|0-0-0-0-0-0-0-0---|0-0--0-0-0-0-0-----10-10-|
 A|----------12-------|------------------|-------------------10-10-|
 E|----------10-------|------------------|--------------------8--8-|
 E|----------------------|-------------------|
 B|----------------------|-------------------|
 G|--------10-10------12-|--12---12----------|
 D|-10-10--10-10-10---12-|--12---12---12-----|
 A|-10-10--------10------|------------12-----|
 E|--8--8---------8------|------------10-----|

Back to
Chorus Fade
 
 E|----------------|---------20--21----|
 B|--------5---8---|--13---------------|
 G|----5-----------|-------------------|
 D|----------------|-------------------|
 A|----------------|-------------------|
 E|----------------|-------------------|

The Lyrics
Feelin' good, can't be real, must be dreamin' 'bout my drivin' wheel.
Rollin' on, drivin' on, come to me and rock me all night long.
We've got a roll goin', too good to stop.
Flyin' high, we've got too far to drop.
Everybody needs somebody to love,
I've got you, and that's love enough.
You're my drivin' wheel - You're my drivin' wheel - You're my drivin' wheel
Powerful love, steady roll, move my body and it rock my soul.
Let me ride, let me slide, got that lovin' feelin', way down inside.
You got me walkin', goin' round and around,
You got me talkin', but I can't hear a sound.
Love comes easy when the going is tough,
May be crazy - I may be in love.
You're my drivin' wheel, yeah - You're my drivin' wheel, yeah -
You're my drivin' wheel, yeah.
Every night feelin' high, flyin' right, can't believe all the love that I feel.
Easy rider, you're a love exciter, you're my love, you're my drivin' wheel.
Feelin' good, can't be real, must be dreamin' 'bout my drivin' wheel.
Rollin' on, drivin' on, come to me and rock me all night long.
We've got a roll goin', too good to stop,
Flyin' high, we've got too far to drop.
Everybody needs somebody to love,
I've got you and that's love enough.
You're my drivin' wheel - You're my drivin' wheel, yeah -
You're my drivin' wheel.
Y-o-u-'r-e my drivin' wheel.
Keep on drivin' me baby - 'cause you're my drivin' wheel,
I love the way I feel - 'cause you're my - 'cause your my drivin' wheel.
Let me ride, let me slide, whoo!
C'mon baby, give it to me baby.
Yea we gotta ride, we gotta ride, we gotta ride, we gotta ride,
We gotta ride, ride, ride, yeah.

Important: The song above is NOT stored on the Chordie server. The original song is hosted at www.guitartabs.cc. Chordie works as a search engine and provides on-the-fly formatting. Chordie does not index songs against artists'/composers' will. To remove this song please click here.

Text color:
Chord color:
Chord grids: 
Font size:    
Page size: 

Csus4 D Dsus4
Rate #2 of 5 versions

Jango Player

Login - add to songbook

SHARE PAGE  




You need to log in to post comments