Guitar Tabs, Chords and Lyrics
Server problems seems to be fixed. Chordie has been experiencing problems with songs disappearing. These issues now seems to be fixed, but still verifying the fix. If you find anything strange, please email admin@chordie.com.


My Babe  Foghat

MY BABE
By Foghat
From the album Fool For The City
Music by Hatfield/Medley-Ray Maxell Music Pub. Co.-BMI
(Covered by Foghat)
(BOOGIE ON)
Rhythym Guitar-Lonesome Dave Peverett
Lead and Slide Guitar- Rod Price
Bass Guitar-Nick Jameson
Drums-Roger Earl
Tabbed by: Nick/Ross
email:jcramson@gmail.com
Tuning :Standard
(Intro)
[G]  
 
 E|-------------------|-----------|
 B|-------------------|-----------|
 G|-------------------|-----------|
 D|-5-5---5-5---5-5---|---5-7-5---| (7x)
 A|-5-5---5-5---5-5---|/7-------7-|
 E|-3-3-3-3-3-3-3-3-3-|-----------|

[G] [G] [F]  
 
 E|----------|-------|
 B|----------|-12-10-|
 G|----------|-12-10-|
 D|-5-5---5-5|-12-10-|
 A|-5-5---5-5|-10--8-|
 E|-3-3-3-3-3|-------|

(Verse 1 - Lonesome Dave)
I'm talkin' 'bout my baby, not your baby
Say my babe, she's so fine
I'm talkin' 'bout my baby, not your baby
Say my babe, she's so fine
I love to love my baby
Love to love her all the time
[D] [D] [G] [G] [D]  
 
 E|-----------------|
 B|-----------------|
 G|-------12--12----|
 D|-12-12-12--12-12-|
 A|-12-12-10--10-12-|
 E|-10-10----|---10-|

(Boogie Beat)
[G] [C] [G]  
 
 E|---------------------|----------------------|
 B|---------------------|----------------------|
 G|------------5-5---5-5|----------------------|
 D|-5-5---5-5--5-5---5-5|-5-5---5-5---5-5---5-5|
 A|-5-5---5-5--3-3-3-3-3|-5-5---5-5---5-5---5-5|
 E|-3-3-3-3-3-----------|-3-3-3-3-3-3-3-3-3-3-3|

[G]Well I love her, don't you love her
[C]Say I love her. do you hea[G]r
(Boogie Beat)
[C] [G]  
 
 E|----------------------|----------------------|
 B|----------------------|----------------------|
 G|-5-5---5-5---5-5---5-5|----------------------|
 D|-5-5---5-5---5-5---5-5|-5-5---5-5---5-5---5-5|
 A|-3-3-3-3-3-3-3-3-3-3-3|-5-5---5-5---5-5---5-5|
 E|----------------------|-3-3-3-3-3-3-3-3-3-3-3|

[C]Well I love her,don't you love her
[C]Say I love her, do you hea[G]r
[D]  
 
 E|----------|----------|
 B|----------|----------|
 G|-7-7---7-7|-5-5---5-5|
 D|-7-7---7-7|-5-5---5-5|
 A|-5-5-5-5-5|-3-3-3-3-3|
 E|----------|----------|

[D]Upsets my soul,S[C]he whispers sweet words in my ear
[G] [C] [C#] [D]  
 
 E|---------------------|
 B|---------------------|
 G|---------------------|
 D|-5-5---5-5--5--------|
 A|-5-5---5-5--5-3-4-5~-|
 E|-3-3-3-3-3--3--------|

I love the way she walk[G]s
(Guitar 1-(Fill 1)-(at 1:08)
E|-333-33---33~|
B|-333-33-5-33~|
 
 G|--------5-44~|
 D|-------------|
 A|-------------|
 E|-------------|

[G]I love the way she talks
(Guitar 1- Fill)
 
 E|-333-33---33--------|
 B|-333-33-5-33--------|
 G|--------5-44/2-4/2-0|
 D|--------------------|
 A|--------------------|
 E|--------------------|

[G]She makes me feel so good[C]
(Guitar 1- Fill)
E|-333-33---33~|
B|-333-33-5-33~|
 
 G|--------5----|
 D|-------------|
 A|-------------|
 E|-------------|

[C]Just like a young man should[G]
(Guitar 1- Fill)
E|-333-33---33~|
B|-333-33-5-33~|
 
 G|--------5-44~|
 D|-------------|
 A|-------------|
 E|-------------|

[G]She never make me cry[Dsus4] [D]
(Guitar 1- Fill)
E|-555-555-5--|
B|-777-777-7--|
 
 G|-----------7|
 D|-----------7|
 A|------------|
 E|------------|

That's wh[Csus4]y, she[C]'s my babe[G]
(Guitar 1- Fill)
E|-333-333-3--|
B|-555-555-5--|
 
 G|-----------5|
 D|-----------5|
 A|------------|
 E|------------|

[G]She's my ba[C]be[C#] [D]
[G] [C] [C#] [D]  
 
 E|---------------------|
 B|---------------------|
 G|---------------------|
 D|-5-5---5-5--5--------|
 A|-5-5---5-5--5-3-4-5~-|
 E|-3-3-3-3-3--3--------|

(Same as above)
Nothin' could be better than to see her
In a sweater & a real tight sweater, that don't fit
Nothin' could be better than to see her
In a sweater and a tight skirt, that don't fit
She wants to have fun
And people let me tell you that's it
I love the way she walks[G]
(Guitar 2-(Fill 2)-(With Guitar 1-(Fill 1)
 
 E|-15-15-15--15-15-15-15-10-10~|
 B|-17-17-17--17-17-17-17-12-12~|
 G|-----------------------------|
 D|-----------------------------|
 A|-----------------------------|
 E|-----------------------------|

[G]I love the way she talks
(Guitar 2-(Fill 2)-(With Guitar 1-(Fill 1)
 
 E|-15-15-15--15-15-15-15-10-10~|
 B|-17-17-17--17-17-17-17-12-12~|
 G|-----------------------------|
 D|-----------------------------|
 A|-----------------------------|

[G]She makes me feel so good[C]
(Guitar 2-(Fill 2)-(With Guitar 1-(Fill 1)
 
 E|----------------------|
 B|-13b15--13---12-15-12~|
 G|----------14----------|
 D|----------------------|
 A|----------------------|

[C]Just like a young man should[G]
(Guitar 2-(Fill 2)-(With Guitar 1-(Fill 1)
 
 E|-19b20-19-20-20b22-22-22-20----19----19-------|
 B|----------------------------22----22----20-20~|
 G|----------------------------------------------|
 D|----------------------------------------------|
 A|----------------------------------------------|
 E|----------------------------------------------|

[G]She never make me cry
 
 E|------|

B|-8-8-7|
G|-7-7-7|
D|-7-7-7|
 
 A|------|
 E|------|

That's why
 
 E|------| 

B|-6-6-5|
G|-5-5-5|
D|-5-5-5|
 
 A|------|
 E|------|

She's my babe
[G]She's my ba[C]be[C#] [D] (Allright)
[G] [C] [C#] [D]  
 
 E|---------------------|
 B|---------------------|
 G|---------------------|
 D|-5-5---5-5--5--------|
 A|-5-5---5-5--5-3-4-5~-|
 E|-3-3-3-3-3--3--------|

(Guitar Solo at-2:08)-(Over verse and chords)
 
 E|-----------------|------------------------------------|
 B|-12-12-12--12-12-|-13-13-13-13-13-13-13-13-13-13-13-13|
 G|-----------------|------------------------------------|
 D|-----------------|------------------------------------|
 A|-----------------|------------------------------------|
 E|-----------------|------------------------------------|
 E|-------------------------------------|-13-13-13-13--10~|
 B|-15-15-15-15-15-15-15-15-15-15-15-15-|-----------------|
 G|-------------------------------------|-----------------|
 D|-------------------------------------|-----------------|
 A|-------------------------------------|-----------------|
 E|-------------------------------------|-----------------|
 E|-------------12-----------------|
 B|-10b11----------10b11-----------|
 G|-------12-12----------12-12--12-|
 D|--------------------------------|
 A|--------------------------------|
 E|--------------------------------|
 E|----------------------------------|
 B|----7-8--13-12-13-12~-13-12-13-15~|
 G|-/7-------------------------------|
 D|----------------------------------|
 A|----------------------------------|
 E|----------------------------------|
 E|-14b15-14----17--14b15-14----15-|-15-------15-|
 B|----------15--------------15----|----13h15----|
 G|--------------------------------|-------------|
 D|--------------------------------|-------------|
 A|--------------------------------|-------------|
 E|--------------------------------|-------------|
 E|-15-------15-15--15-13----|-13----13----|--------------|
 B|----13h15--------------15-|----15----15-|-15--13-14-15~|
 G|--------------------------|-------------|--------------|
 D|--------------------------|-------------|--------------|
 A|--------------------------|-------------|--------------|
 E|--------------------------|-------------|--------------|

(Start playing boogie beat 1 at bottom with lead here)
 
 E|------------------|-------------------|
 B|-6-6-6-6--6-6-6-6-|-6-5---5-----5-----|
 G|------------------|-----7---7-7---5-7-|
 D|------------------|-------------------|
 A|------------------|-------------------|
 E|------------------|-------------------|
 E|---------------------|-------------------------|
 B|---------------------|-------------------------|
 G|---------------------|-------------------------|
 D|-9-9-9-9-------------|-9-7---------------------|
 A|----------8-8-8-9-10-|-----10-10-10--8--8-9-10-|
 E|---------------------|-------------------------|
 E|-------------------|---------------|
 B|-------------------|---------------|
 G|-----------6b7-6b7-|-7b9---7b9---5-|
 D|-9b10-9b10---------|---------------|
 A|-------------------|---------------|
 E|-------------------|---------------|
 E|-------------15--15--15------|
 B|---------15------------------|
 G|--------------------------12-|
 D|-5---5-----------------------|
 A|-----------------------------|
 E|-----------------------------|
 E|--------------------------------------------|
 B|-11b13---11---------------------------------|
 G|-------------12--10--12--12--12--12--10-----|
 D|-----------------------------------------12-|
 A|--------------------------------------------|
 E|--------------------------------------------|
 E|-------------------------|--------------10--7-|
 B|-------------------------|---8----------------|
 G|--10------10----------7--|-9---9--7-----------|
 D|------12------12---------|-----------9--------|
 A|-------------------------|--------------------|
 E|-------------------------|--------------------|
 E|-----10------------|----------|
 B|-8------8----8-6---|--6-------|
 G|-----------------7-|----7-7-7-|
 D|-------------------|----------|
 A|-------------------|----------|
 E|-------------------|----------|

(Boogie beat 1 end)
 
 E|-----/13----13----13----15----15----15-|
 B|-/15-----15----15----17----17----17----|
 G|---------------------------------------|
 D|---------------------------------------|
 A|---------------------------------------|
 E|---------------------------------------|
 E|----13----13----13-7----|
 B|-15----15----15-------8-|
 G|------------------------|
 D|------------------------|
 A|------------------------|
 E|------------------------|
 E|-----13-----14-----15-----17-----18----19-|
 B|-/15----/16----/17----/18----/19----20----|
 G|------------------------------------------|
 D|------------------------------------------|
 A|------------------------------------------|
 E|------------------------------------------|
 E|----19----20----21----22----23----24-|
 B|-19----20----21----22----23----24----|
 G|-------------------------------------|
 D|-------------------------------------|
 A|-------------------------------------|
 E|-------------------------------------|

(Start playing boogie beat 2 at bottom with lead here)
 
 E|---------------|-19b20--15-13-10-13-13-13-13-13-13-|
 B|-24b27---24----|-----------------------------------|
 G|------------24-|-----------------------------------|
 D|---------------|-----------------------------------|
 A|---------------|-----------------------------------|
 E|---------------|-----------------------------------|
 E|-15-15--15-15-15-15-13---13-13-13-|
 B|-----------------------15---------|
 G|----------------------------------|
 D|----------------------------------|
 A|----------------------------------|
 E|----------------------------------|
 E|-15-15--15-15-15-17b19--15--15-13----|
 B|----------------------------------15-|
 G|-------------------------------------|
 D|-------------------------------------|
 A|-------------------------------------|
 E|-------------------------------------|
 E|---13---12------15-|-15\13----19--20--21-|
 B|-----------15------|-------15------------|
 G|-------------------|---------------------|
 D|-------------------|---------------------|
 A|-------------------|---------------------|
 E|-------------------|---------------------|
 E|-22---22-|---12\10--------10-10~--10--10-10-10-|
 B|---------|---------12-13----------13--13-13-13-|
 G|---------|-------------------------------------|
 D|---------|-------------------------------------|
 A|---------|-------------------------------------|
 E|---------|-------------------------------------|

(Boogie beat 2 end)
I love the way she walks[G]
E|-333-33---33~|
B|-333-33-5-33~|
 
 G|--------5-44~|
 D|-------------|
 A|-------------|
 E|-------------|

[G]I love the way she talks
 
 E|-333-33---33--------|
 B|-333-33-5-33--------|
 G|--------5-44/2-4/2-0|
 D|--------------------|
 A|--------------------|
 E|--------------------|

[G]She makes me feel so good[C]
E|-333-33---33~|
B|-333-33-5-33~|
 
 G|--------5----|
 D|-------------|
 A|-------------|
 E|-------------|

[C]Just like a young man should[G]
E|-333-33---33~|
B|-333-33-5-33~|
 
 G|--------5-44~|
 D|-------------|
 A|-------------|
 E|-------------|

[G]She never make me cry
 
 E|------|

B|-8-8-7|
G|-7-7-7|
D|-7-7-7|
 
 A|------|
 E|------|

That's why
 
 E|------| 

B|-6-6-5|
G|-5-5-5|
D|-5-5-5|
 
 A|------|
 E|------|

[G]Ooh baby
 
 E|------|

B|-8-8-7|
G|-7-7-7|
D|-7-7-7|
 
 A|------|
 E|------|

That's why
 
 E|------| 

B|-6-6-5|
G|-5-5-5|
D|-5-5-5|
 
 A|------|
 E|------|

I'm talking bout my baby not your baby
she's my baby not your baby
She's my babe, She's so fineeee
I love the way she walks
E|-333-33---33~|
B|-333-33-5-33~|
 
 G|--------5-44~|
 D|-------------|
 A|-------------|
 E|-------------|

[G]I love the way she talks
 
 E|-333-33---33--------|
 B|-333-33-5-33--------|
 G|--------5-44/2-4/2-0|
 D|--------------------|
 A|--------------------|
 E|--------------------|

[G]She makes me feel so good[C]
E|-333-33---33~|
B|-333-33-5-33~|
 
 G|--------5----|
 D|-------------|
 A|-------------|
 E|-------------|

[C]Just like a young man should[G]
E|-333-33---33~|
B|-333-33-5-33~|
 
 G|--------5-44~|
 D|-------------|
 A|-------------|
 E|-------------|

[G]She never make me cry[D] [sus4] [D]
That's wh[Csus4]y, Oo[C]ooh[G]
I love the way she walks
(Last fill at 4:03)
 
 E|-15-15-15-15-15---12-----|
 B|----------------------15-|
 G|-------------------------|
 D|-------------------------|
 A|-------------------------|
 E|-------------------------|

[G]I love the way she talks
 
 E|-15-15-15--15-15--15-15-----------|
 B|------------------------13--11/12-|
 G|----------------------------------|
 D|----------------------------------|
 A|----------------------------------|
 E|----------------------------------|

[G]She makes me feel so good[C]
 
 E|----------------------------------------|
 B|-12b13-12-12b13-12-12b13--12--8--8------|
 G|-----------------------------------8--8-|
 D|----------------------------------------|
 A|----------------------------------------|
 E|----------------------------------------|

[C]Just like a young man should[G]
 
 E|-19b20-19-19b20-19-19b20--19--20--22-22~|
 B|----------------------------------------|
 G|----------------------------------------|
 D|----------------------------------------|
 A|----------------------------------------|
 E|----------------------------------------|

Sh[G]e never make me cry
E|-22~|
B|-----|
G|-19~|
D|----|
A|----|
E|----|
That's why
E|-20~|
B|----|
G|-17~|
D|----|
A|----|
E|----|
(HALF-TIME)-(Lead Guitar)-(With Rhythym below)
 
 E|----15--15-15-15--18-15-15---------|-----------|
 B|----15--15-15-15--18-15-15----15---|-----------|
 G|-16-16--16-16-16-----------16----15|-16--12-10~|
 D|-----------------------------------|-----------|
 A|-----------------------------------|-----------|
 E|-----------------------------------|-----------|

(HALF-TIME)-(Rhythym Guitar)-(With lead above)
 
 E|-----------------------|
 B|-----------------------|
 G|-----------------------|
 D|-----------------12-10-|
 A|-----2-2-33-44-5/10-8--|
 E|-3-3-------------------|

She's my babyyyyyy
 
 E|-------------------------|
 B|----------12-------------|
 G|--10--12-----12-10---12~-|
 D|-------------------------|
 A|-------------------------|
 E|-------------------------|

========================================
(Boogie beat 1 played with lead up above)
 
 E|---------------|----------------|
 B|---------------|----------------|
 G|---------------|----------------|
 D|----55-33------|----55-33-------|
 A|----------5-3-5|----------5-3-5-|
 E|-33------------|-33-------------|
 E|---------------|----------------|
 B|---------------|----------------|
 G|---------------|----------------|
 D|----55-33------|----55-33-------|
 A|----------5-3-5|----------5-3-5-|
 E|-33------------|-33-------------|
 E|---------------|----------------|
 B|---------------|----------------|
 G|----55-33------|----55-33-------|
 D|----------5-3-5|----------5-3-5-|
 A|-33------------|-33-------------|
 E|---------------|----------------|
 E|---------------|----------------|
 B|---------------|----------------|
 G|---------------|----------------|
 D|----55-33------|----55-33-------|
 A|----------5-3-5|----------5-3-5-|
 E|-33------------|-33-------------|
 E|----------------|----------------|
 B|----------------|----------------|
 G|----77-55-------|----55-33-------|
 D|----------7-5-7-|----------5-3-5-|
 A|-55-------------|-33-------------|
 E|----------------|----------------|
 E|---------------|----------|
 B|---------------|----------|
 G|---------------|----------|
 D|----55-33------|----------|
 A|----------5-3-5|-5--3-4-5~|
 E|-33------------|-3--------|

(Boogie beat 2 played with lead above)
 
 E|---------------|----------------|
 B|---------------|----------------|
 G|----55-33------|----55-33-------|
 D|----------5-3-5|----------5-3-5-|
 A|-33------------|-33-------------|
 E|---------------|----------------|
 E|---------------|----------------|
 B|---------------|----------------|
 G|---------------|----------------|
 D|----55-33------|----55-33-------|
 A|----------5-3-5|----------5-3-5-|
 E|-33------------|-33-------------|
 E|----------------|----------------|
 B|----------------|----------------|
 G|----77-55-------|----55-33-------|
 D|----------7-5-7-|----------5-3-5-|
 A|-55-------------|-33-------------|
 E|----------------|----------------|
 E|---------------|----------|
 B|---------------|----------|
 G|---------------|----------|
 D|----55-33------|----------|
 A|----------5-3-5|-5--3-4-5~|
 E|-33------------|-3--------|

(BOOGIE ON)

Important: The song above is NOT stored on the Chordie server. The original song is hosted at www.guitartabs.cc. Chordie works as a search engine and provides on-the-fly formatting. Chordie does not index songs against artists'/composers' will. To remove this song please click here.

Text color:
Chord color:
Chord grids: 
Font size:    
Page size: 

C C# Csus4 D Dsus4 F G
Rate #1 of 2 versions

Jango Player

Login - add to songbook

SHARE PAGE  



You need to log in to post comments