Guitar Tabs, Chords and Lyrics
Server problems seems to be fixed. Chordie has been experiencing problems with songs disappearing. These issues now seems to be fixed, but still verifying the fix. If you find anything strange, please email admin@chordie.com.


Ride, Ride, Ride  Foghat

RIDE,RIDE,RIDE
As recorded by Foghat
(From the 1973 Album ROCK AND ROLL)
Words and Music by Lonesome Dave Peverett and Rod Price
Transcribed by Tone Jone's
G/D D DV C
x x x 7 8 7 x x 0 x x x x x x 7 7 5 x x x 5 5 3
G/B A A(type 2) A/E
x x x 4 3 3 x 0 2 2 2 x x 0 x x x x x x 2 2 2 x
x x[D/F#] 4 2 3 x x x[Em/G] 5 x 5 x
Gtr I (E A D G B E) - 'Distortion Gtr'
Gtr II (E A D G B E) - 'Distortion Gtr.'
Gtr III (E B E G# B E) - 'Open E Tuning Dist Gtr.'
Gtr IV (E B E G# B E) - 'Open E Tuning Dist Gtr.'
Intro
Moderately Q=127
[D] [G/D] [D] [A]  
[4/4] Gtr I
H. +E E H H W +W
 
 |-2-------(2)s7-|-7----2----|-0--------|-(0)----|
 |-3-------(3)s8-|-8----3----|-2--------|-(2)----|
 |-2-------(2)s7-|-7----2----|-2--------|-(2)----|
 |-0-------------|-0----0----|-2--------|-(2)----|
 |---------------|-----------|-0--------|-(0)----|
 |---------------|-----------|----------|--------|

[D]H. +E E [G/D]H [D]H [A]W +H +Q. [D]S S
 
 |-2-------(2)s7-|-7----2----|-0--------|-(0)----(0)---2-2-|
 |-3-------(3)s8-|-8----3----|-2--------|-(2)----(2)---3-3-|
 |-2-------(2)s7-|-7----2----|-2--------|-(2)----(2)---2-2-|
 |-0-------------|-0----0----|-2--------|-(2)----(2)---0-0-|
 |---------------|-----------|-0--------|-(0)----(0)-------|
 |---------------|-----------|----------|------------------|

D G D A N.C.
H. +E S S Q. S S Q. S S W +H E E E E
 
 |-2-------(2)S7-7-|-7----2-2-2----0-0-|-0--------|-(0)------------||
 |-3-------(3)S8-8-|-8----3-3-3----2-2-|-2--------|-(2)------------||
 |-2-------(2)S7-7-|-7----2-2-2----2-2-|-2--------|-(2)------------||
 |-0---------------|-0----0-0-0----2-2-|-2--------|-(2)------------||
 |-----------------|---------------0-0-|-0--------|-(0)------0-3-4-||
 |-----------------|-------------------|----------|----------------||

Verse
[A]Gtr II
~ ~
Q A Q Q E E Q A Q Q E E
 
 |--------------------|-----------------------|
 |--------------------|-----------------------|
 |--------------------|---------------7-------|
 |----5h7---------5---|-----5h7-------7-------|
 |--------------------|-----------------------|
 |--------------------|-----------------------|

|
| Gtr I
| ~ ~~~~~~
| Q E E +E E E E E E E E E E E E
 
 |--------------------|-----------------------|
 |--------------------|-----------------------|
 |--------2-(2)-------|---------------2-------|
 |-2------------------|-2-4---2---------------|
 |------0-------0-3-4-|---------0-3-4---3b3.5-|
 |--------------------|-----------------------|

~ [D/A] [A] ~
Q a Q Q S E +S Q a Q Q E E
 
 |----------------------------|---------------------|
 |--------------7-5b5.5---(5)-|---------------7p5---|
 |--------------7-5b5.5---(5)-|---------------7p5---|
 |----5h7---------------------|-7---5h7-------------|
 |----------------------------|---------------------|
 |----------------------------|---------------------|

|
| Q E E E E E E E E E E E E E E
 
 |----------------------------|---------------------|
 |--------2---2-3-------------|-2-2---x-2-----------|
 |--------2---2-2-------------|-2-2---x-2-----------|
 |--------2---2-4-------------|-2-2---x-2-----------|
 |-0------0---0---------------|-0-0-----0---0-3-4---|
 |----------------------------|---------------------|

~ ~
Q A Q Q E E Q S E. E E A Q
 
 |--------------------|--------------------------|
 |--------------------|-----7p5------------------|
 |--------------------|-----7p5------------------|
 |----5h7---------5-7-|--------------7-5h7-------|
 |--------------------|--------------------------|
 |--------------------|--------------------------|

|
| ~ ~~~~~~
| Q E E +E E E E E E E E E E E E
 
 |--------------------|--------------------------|
 |--------------------|--------------------------|
 |--------2-(2)-------|------------------2-------|
 |-2------------------|-2-4-2--------------------|
 |------0-------0-3-4-|----------0-3-4-----3b3.5-|
 |--------------------|--------------------------|

[D/A]~ [A] ~
Q S E. Q a Q Q S E. E E a Q
 
 |---------------------|-----------------------|
 |----7p5--------------|-----7p5---------------|
 |----7p5--------------|-----7p5---------------|
 |---------------5h7---|--------------7-5h7----|
 |---------------------|-----------------------|
 |---------------------|-----------------------|

|
| Q E E E E E E E E E E E E E E
 
 |---------------------|-----------------------|
 |---------2---2---3---|-2-2-x----2---2---2----|
 |---------2---2---2---|-2-2-x----2---2---2----|
 |---------2---2---4---|-2-2-x----2---2---2-0--|
 |-0-------0---0-------|-0-0------0---0---0----|
 |---------------------|-----------------------|

[D] [G/D] [D7] ~ [D] [G/D] [D7] ~
Q S E. Q Q Q S E. Q Q
 
 |--------------------|--------------------|
 |-----8p7--------7---|-----8p7--------7---|
 |-----7----------7---|-----7----------7---|
 |--------------------|--------------------|
 |--------------------|--------------------|
 |--------------------|--------------------|

|
| E E E E E E E E E E E E E E E E
 
 |-2---3------5-5-----|-2---3------5-5-----|
 |-x---x------x-x-----|-x---x------x-x-----|
 |-2---4------5-5-----|-2---4------5-5-----|
 |---0------0-0-0---0-|---0------0-0-0---0-|
 |--------------------|--------------------|
 |--------------------|--------------------|

[D] [G/D] [D7] [G] [D/F#C] |-3-|[G]
Q S E. H Q Q Q E E +E
 
 |--------------------|------------------------|
 |-----8p7------------|------------------------|
 |-----7--------------|------------------------|
 |--------------------|------------------------|
 |--------------------|---------3p==0----------|
 |--------------------|-3---2---------3b5-(3)--|

|
| E E E E E E E E E E E E E E E E
 
 |-2---3------5-5-----|-7---5---3-----3--------|
 |-x---x------x-x-----|-8---7---5-----3--------|
 |-2---4------5-5-----|-7---7---5-----4--------|
 |---0------0-0-0---0-|---0---0---0--------0---|
 |--------------------|------------------------|
 |--------------------|------------------------|

[A] [D/A] [A7] [A] [D/A] ~[A] [D/A] [A7]
Q E E E E E E E E E E Q Q E E E E E E E E
 
 |-----------------|----------------------|-----------------|
 |-----------------|----------------------|-----------------|
 |-----------------|---------5b5.5--------|-----------------|
 |-2---------------|----------------7-----|-----------------|
 |-0---x-x-x-x-x-x-|-x-x-x-x--------------|-x-x-x-x-x-x-x-x-|
 |-----x-x-x-x-x-x-|-x-x-x-x--------------|-x-x-x-x-x-x-x-x-|

|
| PM PM PM PM PM PM PM
| E E E E E E E E E E E E Q. S S E E E E E E E E
 
 |-----------------|----------------------|-----------------|
 |-2-2---2---3---5-|---2---2-3--------2-2-|-2-2---2---3---5-|
 |-2-2---2---2---x-|---2---2-2--------2-2-|-2-2---2---2---x-|
 |-2-2---2---4---5-|---2---2-4--------2-2-|-2-2---2---4---5-|
 |-0-0-0---0---0---|-0---0-0----------0-0-|-0-0-0---0---0---|
 |-----------------|----------------------|-----------------|

[A] [D/A]~~ [A]~ ~ PM
|3| |3|
E E E E Q. E A Q Q E S E E S E E E E E Q E E
 
 |----------------|---------------------------|-----------------||
 |----------------|---------------------------|-----------------||
 |---------7------|---------------------------|-----------------||
 |--------------7-|-5h7---7---7-5---5---------|-------7-----5---||
 |-x-x-x-x--------|---------------7-------7p5-|-----------------||
 |-x-x-x-x--------|---------------------------|-5-8-----5-------||

|
| PM PM
| E E E E Q. E E E E E E E E E E E E E E E E E
 
 |----------------|---------------------------|-----------------||
 |---2---2-3------|---2-2---2---2-------------|-2-2---2---------||
 |---2---2-2------|---2-2---2---2---------2---|-2-2---2---------||
 |---2---2-4------|---2-2---2---2---------x---|-2-2---2---------||
 |-0---0-0------0-|---0-0---0---0---3b3.5-0---|-0-0---0---0-3-4-||
 |----------------|---------------------------|-----------------||

Verse
[A]Q E E E Q +E Q E E E Q +E
 
 |------------------------|-----------------------|
 |----7----x--5---(5)b5.5-|-----7---x-5---(5)b5.5-|
 |----7----x--5---(5)b5.5-|-----7---x-5---(5)b5.5-|
 |------------------------|-----------------------|
 |------------------------|-----------------------|
 |------------------------|-----------------------|

|
| ~ ~~~~~~
| Q E E +E E E E E E E E E E E E
 
 |------------------------|-----------------------|
 |------------------------|-----------------------|
 |------2-(2)-------------|-------------2---------|
 |-2----------------------|-2-4-2-----------------|
 |----0-------0-3--4------|-------0-3-4----3b3.5--|
 |------------------------|-----------------------|

Q E E E Q [D/A] +E [A]Q E E E Q +E
 
 |----------------------|------------------------|
 |----7---x-5---(5)b5.5-|-----7---x-5---(5)b5.5--|
 |----7---x-5---(5)b5.5-|-----7---x-5---(5)b5.5--|
 |----------------------|------------------------|
 |----------------------|------------------------|
 |----------------------|------------------------|

|
| Q E E E E E E E E E E E E E E
 
 |----------------------|------------------------|
 |------2---2-3---------|-2-2-x-2----------------|
 |------2---2-2---------|-2-2-x-2----------------|
 |------2---2-4---------|-2-2-x-2----------------|
 |-0----0---0-----------|-0-0---0---0-3--4-------|
 |----------------------|------------------------|

Q E E E Q +E Q E E E Q +E
 
 |------------------------|-----------------------|
 |----7----x--5---(5)b5.5-|-----7---x-5---(5)b5.5-|
 |----7----x--5---(5)b5.5-|-----7---x-5---(5)b5.5-|
 |------------------------|-----------------------|
 |------------------------|-----------------------|
 |------------------------|-----------------------|

|
| ~ ~~~~~~
| Q E E +E E E E E E E E E E E E
 
 |------------------------|-----------------------|
 |------------------------|-----------------------|
 |------2-(2)-------------|-------------2---------|
 |-2----------------------|-2-4-2-----------------|
 |----0-------0-3--4------|-------0-3-4----3b3.5--|
 |------------------------|-----------------------|

Q E E E Q [D/A] +E [A]Q E E E E Q
 
 |----------------------|------------------|
 |----7---x-5---(5)b5.5-|-----7---x--------|
 |----7---x-5---(5)b5.5-|-----7---x--------|
 |----------------------|------------------|
 |----------------------|------------------|
 |----------------------|------------------|

|
| Q E E E E E E E E E E E E E E
 
 |----------------------|------------------|
 |------2---2-3---------|-2-2-x-2---2-2----|
 |------2---2-2---------|-2-2-x-2---2-2----|
 |------2---2-4---------|-2-2-x-2---2-2-0--|
 |-0----0---0-----------|-0-0---0---0-0----|
 |----------------------|------------------|

[D] [G/D] [D7] ~~ [D] [G/D] [D7] ~~
E E E E E Q. E E E E E Q.
 
 |------------------|------------------|
 |-----7---x-8------|-----7---x-8------|
 |-x-x-7---x-7------|-x-x-7---x-7------|
 |-x-x--------------|-x-x--------------|
 |------------------|------------------|
 |------------------|------------------|

|
| E E E E E E E E E E E E E E E E
 
 |-2---3---5-5------|-2---3---5-5------|
 |-x---x---x-x------|-x---x---x-x------|
 |-2---4---5-5------|-2---4---5-5------|
 |---0---0-0-0----0-|---0---0-0-0----0-|
 |------------------|------------------|
 |------------------|------------------|

[D] [G/D] [D7] [G] [D/F#C] |-3-|[G]
E E E E E Q +E Q Q Q E E +E
 
 |--------------------|-----------------------|
 |-----7---x-8---(8)\-|-----------------------|
 |-x-x-7---x-7---(7)\-|-----------------------|
 |-x-x----------------|-----------------------|
 |--------------------|---------3p==0---------|
 |--------------------|-3---2---------3b5-(3)-|

|
| E E E E E E E E E E E E E E E E
 
 |-2---3---5-5--------|-7---5---3-----3-------|
 |-x---x---x-x--------|-8---7---5-----3-------|
 |-2---4---5-5--------|-7---7---5-----4-------|
 |---0---0-0-0----0---|---0---0---0--------0--|
 |--------------------|-----------------------|
 |--------------------|-----------------------|

[A]W [D/A] [A7] +H [A] [D/A]+E E E [A]E
 
 |-----------------|-------------------------|
 |-----------------|-------------------------|
 |-----------------|-------------------------|
 |-2---------------|-(2)-------(2)-------2---|
 |-0---------------|-(0)-------(0)-------0---|
 |-----------------|---------------0-3b4-----|

|
| PM PM PM PM
| E E E E E E E E E E E E Q. S S
 
 |-----------------|-------------------------|
 |-2-2---2---3---5-|-----2---2--3--------2-2-|
 |-2-2---2---2---x-|-----2---2--2--------2-2-|
 |-2-2---2---4---5-|-----2---2--4--------2-2-|
 |-0-0-0---0---0---|--0----0-0-----------0-0-|
 |-----------------|-------------------------|

W [D/A] [A7] H. [A] [D/A] Q
 
 |-----------------|------------------||
 |-----------------|--------------0---||
 |-----------------|------------------||
 |-2---------------|-2----------------||
 |-0---------------|-0----------------||
 |-----------------|------------------||

|
| PM PM PM PM PM
| E E E E E E E E E E E E Q. E
 
 |-----------------|------------------||
 |-2-2---2---3---5-|----2---2-3-------||
 |-2-2---2---2---x-|----2---2-2-------||
 |-2-2---2---4---5-|----2---2-4-------||
 |-0-0-0---0---0---|-0----0-0-------0-||
 |-----------------|------------------||

Chorus
[D]Gtr I[G] [D] [A]
~~ ~~
E E E E E E E E E E E E E E E E E E E E E Q. E E E E E Q.
 
 |-----------------|-----------------|----------------|-----------------|
 |-----------------|-----------------|----------------|-----------------|
 |-2-2-----2-2-----|---------2-2-----|-----------2----|-----------2-----|
 |-0-0-3-4-0-0-3-4-|---------0-0-3-4-|-2-2-----2------|---------2-------|
 |-----------------|-----1-2---------|-0-0-3-4--------|-0-0-3-4---------|
 |-----------------|-3-3-------------|----------------|-----------------|

[D] [G] [D] [A] ~~ ~~
E E E E E E E E E E E E E E E E E E E E E Q. E E E E E Q.
 
 |-----------------|-----------------|----------------|-----------------||
 |-----------------|-----------------|----------------|-----------------||
 |-2-2-----2-2-----|---------2-2-----|-----------2----|-----------2-----||
 |-0-0-3-4-0-0-3-4-|---------0-0-3-4-|-2-2-----2------|---------2-------||
 |-----------------|-----1-2---------|-0-0-3-4--------|-0-0-3-4---------||
 |-----------------|-3-3-------------|----------------|-----------------||

Bridge
A N.C. D/F# A N.C.
Gtr II
Q E E E E E E E E E E E E S S E Q E E E E S S S S
 
 |----------------|-----------------------|--------------------|
 |----------------|-----7-----7-----------|--------------------|
 |----------------|-----7-----7-----5b5.5-|--------------------|
 |-7--x-x-x-x-x-x-|-x-x---x-x---x-x-------|-7--x-x-x-x-x-x-x-x-|
 |----------------|-----------------------|--------------------|
 |----------------|-----------------------|--------------------|

|
| Gtr I
| Q Q H H E E E E Q Q H
 
 |----------------|-----------------------|--------------------|
 |-2--------------|-----------3-3---3-----|-2------------------|
 |-2--------------|-----------2-2---2-----|-2------------------|
 |-2--------------|-----------4-4---4-----|-2------------------|
 |-0--------------|-----------------------|-0------------------|
 |----------------|-----------------------|--------------------|

D/F# A N.C. D/F#
~
E S S E E S S E E E Q E S S E S S E S S E E E S S E E E E
 
 |---------------------|----------------------|---------------------------|
 |---------------------|----------------------|-----7---------------------|
 |---------------------|----------------------|-----7-----5b5.5---7-5b5.5-|
 |-x-----5-------5-5---|----x-x-x-x-x-x-x-x-x-|-x-x---x-x-------7---------|
 |---5h7---5-5h7-------|----------------------|---------------------------|
 |-------------------8-|-5--------------------|---------------------------|

|
| E E E E E E E E Q Q H H E E E E
 
 |---------------------|----------------------|---------------------------|
 |---3---3-3-3---3-3-3-|-2--------------------|-----------------3-3-3-----|
 |---2---2-2-2---2-2-2-|-2--------------------|-----------------2-2-2-----|
 |---4---4-4-4---4-4-4-|-2--------------------|-----------------4-4-4-----|
 |---------------------|-0--------------------|---------------------------|
 |---------------------|----------------------|---------------------------|

A N.C.
~
H H S E S E S S +S S E E E
 
 |------------|-------------------------||
 |------------|-------------------------||
 |------------|-------------------------||
 |-7----------|-7-7-5-5-----------------||
 |------------|---------7-7-(7)-5-5-----||
 |------------|---------------------8-5-||

|
| Q Q H W
 
 |------------|-------------------------||
 |-2----------|-------------------------||
 |-2----------|-------------------------||
 |-2----------|-------------------------||
 |-0----------|-------------------------||
 |------------|-------------------------||

Chorus
[D]Gtr III[G] [D]
W W
 
 |-----------------|-----------------|
 |-----------------|-----------------|
 |-----------------|-----------------|
 |-----------------|-----------------|
 |-----------------|-----------------|
 |-----------------|-----------------|

|
| Gtr I
| E E E E E E E E E E E E E E E E
 
 |-----------------|-----------------|
 |-----------------|-----------------|
 |-2-2-----2-2-----|---------2-2-----|
 |-0-0-3-4-0-0-3-4-|---------0-0-3-4-|
 |-----------------|-----1-2---------|
 |-----------------|-3-3-------------|

[A] ~~~~~~~~~~
H Q E E +Q +Q S E. +Q
 
 |---------------------|--------------------------|
 |---------------------|--------------------------|
 |----------------6b8==|=(6)r==(6)---4------------|
 |---------------------|---------------5-----(5)--|
 |---------------------|--------------------------|
 |---------------------|--------------------------|

|
| ~~ ~~
| E E E E E Q. E E E E E Q.
 
 |---------------------|--------------------------|
 |---------------------|--------------------------|
 |-----------2---------|------------------2-------|
 |-2-2-----2-----------|-------------2------------|
 |-0-0-3-4-------------|--0--0--3--4--------------|
 |---------------------|--------------------------|

[D] [G] [D] [A] ~~
W W H Q E A E +Q E E E Q.
 
 |-----------------|-----------------|--------------------|------------------||
 |-----------------|-----------------|--------------------|------------------||
 |-----------------|-----------------|----------------6s8-|-(8)s==6-4s5------||
 |-----------------|-----------------|--------------------|-------------5----||
 |-----------------|-----------------|--------------------|------------------||
 |-----------------|-----------------|--------------------|------------------||

|
| ~~ ~~
| E E E E E E E E E E E E E E E E E E E E E Q. E E E E E Q.
 
 |-----------------|-----------------|--------------------|------------------||
 |-----------------|-----------------|--------------------|------------------||
 |-2-2-----2-2-----|---------2-2-----|-----------2--------|-------------2----||
 |-0-0-3-4-0-0-3-4-|---------0-0-3-4-|-2-2-----2----------|-----------2------||
 |-----------------|-----1-2---------|-0-0-3-4------------|--0--0-3-4--------||
 |-----------------|-3-3-------------|--------------------|------------------||

Guitar Solo
[D]Gtr IV[G] [D]
~~ ~~~
E E E E S S A Q. A H A Q. E
 
 |-------------------------|-------------------------|
 |-10s9s10s9-10s9----------|-10s12------12s15--------|
 |----------------8s10-----|-------------------------|
 |-------------------------|-------------------------|
 |-------------------------|-------------------------|
 |-------------------------|-------------------------|

|
| Gtr III
| ~~~ ~~ ~~~
| E E E E S S Q. A H A Q. E
 
 |-------------------------|-------------------------|
 |-------------------------|-------------------------|
 |-10s9s10s9-10s9----------|-10s11------11s13--------|
 |------------------10-----|-------------------------|
 |-------------------------|-------------------------|
 |-------------------------|-------------------------|

|
| Gtr II
| Q E E E E Q Q E E E E Q
 
 |-------------------------|-------------------------|
 |-------7----x------7-----|--------8-------x--7-----|
 |-------7----x------7-----|--------7-------x--7-----|
 |-------------------------|-------------------------|
 |-------------------------|-------------------------|
 |-------------------------|-------------------------|

[A] ~~
A H. E A E W
 
 |----------------------------------|-17--------------------|
 |-14s15s==================17-14s17-|-----------------------|
 |----------------------------------|-----------------------|
 |----------------------------------|-----------------------|
 |----------------------------------|-----------------------|
 |----------------------------------|-----------------------|

|
| a Q Q Q. a E W
 
 |----------------------------------|-17--------------------|
 |----------------------------14s17-|-----------------------|
 |-13s15s=16s====17-----------------|-----------------------|
 |----------------------------------|-----------------------|
 |----------------------------------|-----------------------|
 |----------------------------------|-----------------------|

|
| ~~ ~~
| Q E S S E Q. E E E S S E Q.
 
 |----------------------------------|-----------------------|
 |---------5------------------------|------5----------------|
 |---------5-x-x--5b5.5-------------|------5-x-x-5b5.5------|
 |-----------x-x--------7-----------|--------x-x-------7----|
 |----------------------------------|--0-0------------------|
 |----------------------------------|-----------------------|

[D]Gtrs III, IV[G] [D]
~~~~
A Q E E E E E. A S +H A H
 
 |-12s14---14s13-14s13-14----14s15-|-(15)-------15s17-------|
 |---------------------------------|------------------------|
 |---------------------------------|------------------------|
 |---------------------------------|------------------------|
 |---------------------------------|------------------------|
 |---------------------------------|------------------------|

|
| Gtr II
| Q E E E E Q Q E E E E Q
 
 |---------------------------------|------------------------|
 |----------7-----x--7-------------|--------8-------x-7-----|
 |----------7-----x--7-------------|--------7-------x-7-----|
 |---------------------------------|------------------------|
 |---------------------------------|------------------------|
 |---------------------------------|------------------------|

|
| Gtr I
| E E E E E E E E E E E E E E E E
 
 |---------------------------------|------------------------|
 |---------------------------------|------------------------|
 |-----2-2--------2--2-------------|----------------2-2-----|
 |-----0-0--3--4--0--0--3--4-------|----------------0-0-3-4-|
 |---------------------------------|--------1-2-------------|
 |---------------------------------|---3--3-----------------|

( Tab from: http://www.guitartabs.cc/tabs/f/foghat/riderideride_tab.html )
[A] a Q Q Q Q W
 
 |-17s18s==19s====20s==21---|-----------------------||
 |--------------------------|-----------------------||
 |--------------------------|-----------------------||
 |--------------------------|-----------------------||
 |--------------------------|-----------------------||
 |--------------------------|-----------------------||

|
| Q E S S E E E E E A E E E Q +E E
 
 |--------------------------|-----------------------||
 |----------7------5--------|-----------------------||
 |----------7-x-x--5--------|-----------------------||
 |------------x-x----7--7-7-|-7-----5---------------||
 |-------------------0--0-0-|-0-5h7-----------------||
 |--------------------------|---------8-5---(5)\----||

|
| E E E E E E E E E E E E E E E E
 
 |--------------------------|-----------------------||
 |--------------------------|-----------------------||
 |--------------------------|-----------------------||
 |--------------------------|-----------------------||
 |-----0-0--0-0----0-0--0-0-|-0---0-0-0-0-0--3---4--||
 |--------------------------|-----------------------||

Verse
[A]Gtr II
~~
E E E S S E Q. E E E E E E E +E
 
 |-------------------------|-----------------------|
 |-----7-------------------|-----7-----5-5-(5)b5.5-|
 |-x-x-7-x-x--5b5.5--------|-x-x-7-x-x-5-5-(5)b5.5-|
 |-x-x---x-x--------7------|-x-x---x-x-------------|
 |-------------------------|-----------------------|
 |-------------------------|-----------------------|

|
| Gtr I
| ~ ~~~~~~~~~~~
| Q E E +E E E E E E E E E E E E
 
 |-------------------------|-----------------------|
 |-------------------------|-----------------------|
 |-------2---(2)-----------|-------------2---------|
 |-2-----------------------|-2-4-2-----------------|
 |-----0------------0--3-4-|-------0-3-4----3b3.5--|
 |-------------------------|-----------------------|

[D/A] [A]  
[E] [E] [E] [E] [E] [E] [E] [+E] [E] [E] [E] [E] [E] [E] [E] [+E]  
 
 |-----------------------|-----------------------|
 |-----7-----5-5-(5)b5.5-|-----7-----5-5-(5)b5.5-|
 |-x-x-7-x-x-5-5-(5)b5.5-|-x-x-7-x-x-5-5-(5)b5.5-|
 |-x-x---x-x-------------|-x-x---x-x-------------|
 |-----------------------|-----------------------|
 |-----------------------|-----------------------|

|
| Q E E E E E E E E E E E E E E
 
 |-----------------------|-----------------------|
 |-------2---2-3---------|-2-2-x-2---------------|
 |-------2---2-2---------|-2-2-x-2---------------|
 |-------2---2-4---------|-2-2-x-2---------------|
 |-0-----0---0-----------|-0-0---0---0-3--4------|
 |-----------------------|-----------------------|

PM
[E] [E] [E] [E] [E] [E] [E] [+E] [E] [E] [E] [E] [E] [E] [E] [+E]  
 
 |-------------------------|-----------------------|
 |-----7-0-----5-5-(5)b5.5-|-----7-0-5-5-5-(5)b5.5-|
 |-x-x-7-0--x--5-5-(5)b5.5-|-x-x-7-0-5-5-5-(5)b5.5-|
 |-x-x------x--------------|-x-x-------------------|
 |-------------------------|-----------------------|
 |-------------------------|-----------------------|

|
| ~ ~~~~~~
| Q E E +E E E E E E E E E E E E
 
 |-------------------------|-----------------------|
 |-------------------------|-----------------------|
 |-------2-(2)-------------|-------------2---------|
 |-2-----------------------|-2-4-2-----------------|
 |-----0-------0-3--4------|-------0-3-4----3b3.5--|
 |-------------------------|-----------------------|

~~ [D/A] [A] ~
E E E E E Q. E E E S S E E Q
 
 |------------------|-----------------------|
 |-----7-0-5--------|-----7-----5-----------|
 |-x-x-7-0-5--------|-x-x-7-x-x-5-5b5.5-----|
 |-x-x-------7------|-x-x---x-x---------7---|
 |------------------|-----------------------|
 |------------------|-----------------------|

|
| Q E E E E E E E E E E E E E E
 
 |------------------|-----------------------|
 |-------2---2--3---|-2-2-x-2-----2-----2---|
 |-------2---2--2---|-2-2-x-2-----2-----2---|
 |-------2---2--4---|-2-2-x-2-----2-----2-0-|
 |-0-----0---0------|-0-0---0-----0-----0---|
 |------------------|-----------------------|

[D] [G/D] [D7] ~~ [D] [G/D] [D7] ~~
Q E E E Q. Q E E E Q.
 
 |------------------|------------------|
 |-----7---8-8------|-----7---8-8------|
 |-----7---7--------|-----7---7--------|
 |------------------|------------------|
 |------------------|------------------|
 |------------------|------------------|

|
| E E E E E E E E E E E E E E E E
 
 |-2---3---5-5------|-2---3---5-5------|
 |-x---x---x-x------|-x---x---x-x------|
 |-2---4---5-5------|-2---4---5-5------|
 |---0---0-0-0----0-|---0---0-0-0----0-|
 |------------------|------------------|
 |------------------|------------------|

[D] [G/D] [D7] ~~[G] [D/F#C] [G]
|-3-|
Q E E E Q. Q Q Q E E +E
 
 |------------------|-----------------------|
 |-----7---8-8------|-----------------------|
 |-----7---7--------|-----------------------|
 |------------------|-----------------------|
 |------------------|---------3p==0---------|
 |------------------|-3---2---------3b5-(3)-|

|
| E E E E E E E E E E E E E E E E
 
 |-2---3---5-5------|-7---5---3-----3-------|
 |-x---x---x-x------|-8---7---5-----3-------|
 |-2---4---5-5------|-7---7---5-----4-------|
 |---0---0-0-0----0-|---0---0---0--------0--|
 |------------------|-----------------------|
 |------------------|-----------------------|

[A]W [D/A] [A7] +H. [A] [D/A] E [A]+E
 
 |-----------------|-------------------------|
 |-----------------|-------------------------|
 |-----------------|-------------------------|
 |-2---------------|-(2)---------------------|
 |-0---------------|-(0)---------------------|
 |-----------------|---------------3b5-(3)---|

|
| PM PM PM PM
| E E E E E E E E E E E E Q. S S
 
 |-----------------|-------------------------|
 |-2-2---2---3---5-|-----2---2-3--------2--2-|
 |-2-2---2---2---x-|-----2---2-2--------2--2-|
 |-2-2---2---4---5-|-----2---2-4--------2--2-|
 |-0-0-0---0---0---|--0----0-0----------0--0-|
 |-----------------|-------------------------|

W [D/A] [A7] +W[A] [D/A]
 
 |-----------------|------------------||
 |-----------------|------------------||
 |-----------------|------------------||
 |-2---------------|-(2)--------------||
 |-0---------------|-(0)--------------||
 |-----------------|------------------||

|
| PM PM PM PM PM
| E E E E E E E E E E E E Q. E
 
 |-----------------|------------------||
 |-2-2---2---3---5-|-----2---2-3------||
 |-2-2---2---2---x-|-----2---2-2------||
 |-2-2---2---4---5-|-----2---2-4------||
 |-0-0-0---0---0---|--0----0-0------0-||
 |-----------------|------------------||

Chorus
[D]Gtr I[G] [D] [A]
~~ ~~
E E E E E E E E E E E E E E E E E E E E E Q. E E E E E Q.
 
 |-----------------|-----------------|----------------|-----------------|
 |-----------------|-----------------|----------------|-----------------|
 |-2-2-----2-2-----|---------2-2-----|-----------2----|-----------2-----|
 |-0-0-3-4-0-0-3-4-|---------0-0-3-4-|-2-2-----2------|---------2-------|
 |-----------------|-----1-2---------|-0-0-3-4--------|-0-0-3-4---------|
 |-----------------|-3-3-------------|----------------|-----------------|

[D] [G] [D] [A] 
[E] [E] [E] [E] [E] [E] [E] [E] [E] [E] [E] [E] [E] [E] [E] [E] [E] [E] [E] [E] [E] [E] [E] [E] [E] [E] [E] [E] [E] [E] [E] [E]  
 
 |-----------------|-----------------|-----------------|------------------|
 |-----------------|-----------------|-----------------|------------------|
 |-2-2-----2-2-----|---------2-2-----|-----------------|------------------|
 |-0-0-3-4-0-0-3-4-|---------0-0-3-4-|-----------------|------------------|
 |-----------------|-----1-2---------|-0-0-0-0-0-0-0-0-|-0-0-0-0-0-0-0-0--|
 |-----------------|-3-3-------------|-----------------|------------------|

Gtr II
E E E E E E E E E Q +E H
 
 |-----------------|-----------------------||
 |-----------------|-----------------------||
 |-----------------|-----------------------||
 |-7-5-------------|-----------------------||
 |-------7---5-----|-----------------------||
 |---------------8-|---8b9---(8)-5---------||

|
| Gtr I
| E E E E E E E E E E E E E E E S S
 
 |-----------------|-----------------------||
 |-----------------|-------------------2-2-||
 |-----------------|-------------------2-2-||
 |-----------------|-------------2-2-2-2-2-||
 |-0-0-0-0-0-0-0-0-|-0-0---0--0--0-0-0-0-0-||
 |-----------------|-----------------------||

Outro
[A]+W [D/A] [A7] +Q Q H
 
 |------------------|---------------------|
 |------------------|---------------------|
 |------------------|---------------------|
 |------------------|---------------------|
 |------------------|---------------------|
 |-(5)--------------|-(5)-----------------|

|
| ~~
| H +E E E E E E E E Q. S S
 
 |------------------|---------------------|
 |--2-----(2)-3---5-|-----2---2-3----2-2--|
 |--2-----(2)-2---x-|-----2---2-2----2-2--|
 |--2-----(2)-4---5-|-----2---2-4----2-2--|
 |--0-----(0)-----0-|-----0---0------0-0--|
 |------------------|---------------------|

W E E E S S E S S E S S E S S E S S E S S E S S
 
 |----------------|------------------------|----------------------------|
 |----------------|------------------------|----------------------------|
 |----------------|------------------------|----------------------------|
 |----------------|---x-x-x-x-x--x-x-x-x-x-|-x-x-x-x-x-x--x--x-x-x-x-x--|
 |----------------|------------------------|----------------------------|
 |----------------|------------------------|----------------------------|

|
| ~~
| H +E E E E E E E E Q. S S H +E E E E
 
 |----------------|------------------------|----------------------------|
 |-2----(2)-3---5-|---2---2---3--------2-2-|-2-----------(2)-3-----5----|
 |-2----(2)-2---x-|---2---2---2--------2-2-|-2-----------(2)-2-----x----|
 |-2----(2)-4---5-|---2---2---4--------2-2-|-2-----------(2)-4-----5----|
 |-0----(0)-----0-|---0---0------------0-0-|-0-----------(0)-------0----|
 |----------------|------------------------|----------------------------|

E S S E S S E S S E S S E S S E S S E S S E S S
 
 |--------------------------|---------------------------|
 |--------------------------|---------------------------|
 |--------------------------|---------------------------|
 |-x-x-x-x-x-x-x--x-x-x-x-x-|-x-x-x-x-x-x--x--x-x-x-x-x-|
 |--------------------------|---------------------------|
 |--------------------------|---------------------------|

|
| ~~
| E E E E Q. S S H +E E E E
 
 |--------------------------|---------------------------|
 |---2-----2---3--------2-2-|-2-----------(2)-3-----5---|
 |---2-----2---2--------2-2-|-2-----------(2)-2-----x---|
 |---2-----2---4--------2-2-|-2-----------(2)-4-----5---|
 |---0-----0------------0-0-|-0-----------(0)-------0---|
 |--------------------------|---------------------------|

E S S E S S Q Q
 
 |---------------------------|
 |---------------------------|
 |---------------------|
 |-x-x-x-x-x-x---------------|
 |---------------------------|
 |---------------------------|

|
| ~~~
| E E E E Q. S S
 
 |---------------------------|
 |---2-----2----3-------2-2--|
 |---2-----2----2-------2-2--|
 |---2-----2----4-------2-2--|
 |---0-----0------------0-0--|
 |---------------------------|

~~~ ~
H H H A E E E E H E S S E S S
 
 |------------------|----------------------|---------------------|
 |------------------|----------------------|---------------------|
 |------------------|----------------------|---------------------|
 |---------------|--------------5-------|-------x--x-x-x-x-x--|
 |------------------|---------5s7----7-----|---------------------|
 |------------------|------------------8---|-5-------------------|

|
| ~~
| H +E E E E E E E E Q. S S H +E E E E
 
 |------------------|----------------------|---------------------|
 |--2-----(2)-3---5-|---2---2---3------2-2-|-2----(2)-3-----5----|
 |--2-----(2)-2---x-|---2---2---2------2-2-|-2----(2)-2-----x----|
 |--2-----(2)-4---5-|---2---2---4------2-2-|-2----(2)-4-----5----|
 |--0-----(0)-----0-|---0---0----------0-0-|-0----(0)-------0----|
 |------------------|----------------------|---------------------|

E S S E S S Q E E H +Q Q H E E E +E
 
 |------------------------|------------------|---------------------------|
 |-----------------/7-----|-5----------------|---------7----5-(5)b5.5----|
 |-----------------/7-----|-5b6----(5)-------|---------7----5-(5)b5.5----|
 |-x-x-x-x-x-x------------|------------------|---------------------------|
 |------------------------|------------------|---------------------------|
 |------------------------|------------------|---------------------------|

|
| ~~ ~~
| E E E E Q. S S H +E E E E E E E E Q. S S
 
 |------------------------|------------------|---------------------------|
 |---2-----2---3------2-2-|-2------(2)-3---5-|---2---2-3-------2------2--|
 |---2-----2---2------2-2-|-2------(2)-2---x-|---2---2-2-------2------2--|
 |---2-----2---4------2-2-|-2------(2)-4---5-|---2---2-4-------2------2--|
 |---0-----0----------0-0-|-0------(0)-----0-|---0---0---------0------0--|
 |------------------------|------------------|---------------------------|

~ ~~
H H H E E E +E H. Q
 
 |----------------|--------------------------|-----------------|
 |----------------|---------7--0-5-(5)b5.5---|-----------------|
 |----------------|---------7--0-5-(5)b5.5---|-----------------|
 |-7--------------|--------------------------|-7---------------|
 |----------------|--------------------------|-----------------|
 |----------------|--------------------------|-----------------|

|
| ~~
| H +E E E E E E E E Q. S S H +E E E E
 
 |----------------|--------------------------|-----------------|
 |-2----(2)-3---5-|---2---2-3-------2------2-|-2-----(2)-3---5-|
 |-2----(2)-2---x-|---2---2-2-------2------2-|-2-----(2)-2---x-|
 |-2----(2)-4---5-|---2---2-4-------2------2-|-2-----(2)-4---5-|
 |-0----(0)-----0-|---0---0---------0------0-|-0-----(0)-----0-|
 |----------------|--------------------------|-----------------|

~~
E E E E E +E Q H. E E Q E +E E E E E
 
 |--------------------------|-----------------|------------------------|
 |-8---7---5--(5)b5.5-------|-----------------|------------------------|
 |-7---7---5--(5)b5.5-------|-----------------|-----5b6-(5)------------|
 |--------------------7-----|-7-------------7-|-------------7----5-----|
 |--------------------------|-----------------|----------------7---5---|
 |--------------------------|-----------------|------------------------|

|
| ~~ ~~
| E E E E Q. S S H +E E E E E E E E Q. S S
 
 |--------------------------|-----------------|------------------------|
 |---2---2-3------------2-2-|-2-----(2)-3---5-|---2------2--3------2-2-|
 |---2---2-2------------2-2-|-2-----(2)-2---x-|---2------2--2------2-2-|
 |---2---2-4------------2-2-|-2-----(2)-4---5-|---2------2--4------2-2-|
 |---0---0--------------0-0-|-0-----(0)-----0-|---0------0---------0-0-|
 |--------------------------|-----------------|------------------------|

G/D DV D C D G/B D A A A(typA/E) A(type 2D/FA(Em/G
Gtr I
[E]| [E]| [E]| [E]| [E]| [E]| [E]| [E]| [E]| [E]| [E]| [E]| [E]| [E]| [E]| [E]|
/ / / / / / / / / / x / x / x /
Gtr IV
~~~~~~~~~~~~~~~~~~~~~~~~~~~~~~~
W A Q. E +E Q E
 
 |--------------------------------------|-12s=17-------------17----(17)----17---17-|
 |--------------------------------------|------------------------------------------|
 |--------------------------------------|------------------------------------------|
 |--------------------------------------|------------------------------------------|
 |--------------------------------------|------------------------------------------|
 |--------------------------------------|------------------------------------------|

|
| Gtr III
| ~~
| Q A Q E S A S E A E +E S S +E S S E A Q E
 
 |-----15s17---17s15--------------------|------------------------------------------|
 |---------------------15s17------------|---------------------------------------10-|
 |-------------------------------13s17--|----(17)----17-(17)------------13s17------|
 |--------------------------------------|---------17---------17-15--17-------------|
 |--------------------------------------|------------------------------------------|
 |--------------------------------------|------------------------------------------|

|
| Gtr II
| |-3--|
| Q Q Q E E +E W
 
 |--------------------------------------|------------------------------------------|
 |--------------------------------------|------------------------------------------|
 |--------------------------------------|------------------------------------------|
 |--------------------------------------|------2-----------------------------------|
 |--------------3p===0------------------|------0-----------------------------------|
 |-3-------2-----------------3b5----(3)-|------------------------------------------|

A(type A/E A(tApeD/F# A
E E E E Q. E
| | | | | |
x / x / / /
~~~
S S E A E E E Q.
 
 |-17s=15---------------------------------|
 |--------17------------------------------|
 |--------------17h18-15s17---------------|
 |---------------------------17-----------|
 |----------------------------------------|
 |----------------------------------------|

|
| S S S S E E E E A Q
 
 |----------------------------------------|
 |----------------------------------------|
 |-------------------------------13s17----|
 |-17--17-17-17----14----14--17-----------|
 |--------------------17------------------|
 |----------------------------------------|

|
| +Q. E E E E E
 
 |----------------------------------------|
 |----------------------------------------|
 |----------------------------------------|
 |-(2)-----------------2--2---2------2-2--|
 |-(0)-----------------0--0---0------0-0--|
 |----------------------------------------|

G/D D DV D C D G/B D
Gtr I
[E]| [E]| [E]| [E]| [E]| [E]| [E]| [E]|
[/] [/] [/] [/] [/] [/] [/] [/] 
Gtr IV
E E Q E E E A E
 
 |-----------------------------------------|
 |-----------------------------------------|
 |----15s17--------------------------------|
 |----------17--------17s=15--------15s17--|
 |-----------------------------17----------|
 |-----------------------------------------|

|
| Gtr III
| A Q. A E +E E E A E
 
 |-----------------------------------------|
 |-----------------------------------------|
 |-----------------------------------------|
 |-15s17-------15s17-(17)s15--------15s17--|
 |-----------------------------17----------|
 |-----------------------------------------|

|
| Gtr II
| |--3--|
| Q Q Q E E +E
 
 |-----------------------------------------|
 |-----------------------------------------|
 |-----------------------------------------|
 |-----------------------------------------|
 |---------------------3p====0-------------|
 |-----3-----2------------------3b5----(3)-|

A A A(tA/EA(type 2D/F#A(tEm/G2A(typA/EA(typeA2)D/F# A
E E E E E E E E E E E E Q. E
| | | | | | | | | | | | | |
/ / x / x / x / x / x / / /
~~~~ ~~~~ ~~~~
+Q A E E +Q E E E E E E Q. E
 
 |--------------17-(17)--------17-15-|--17--15s17----17--17----------15-|
 |--------14s17----------------------|----------------------------------|
 |-----------------------------------|----------------------------------|
 |-(17)------------------------------|----------------------------------|
 |-----------------------------------|----------------------------------|
 |-----------------------------------|----------------------------------|

|
| ~~~~ ~~~~~~~~~~~~~~~~
| +Q E E E A Q. +E E E A E +Q A Q
 
 |-----------------------------------|----------------------------------|
 |-----------------------------------|-------------------------15s17----|
 |----------------------15s17--------|-(17)-17s18-15s17-(17)------------|
 |-(17)------17-15--17---------------|----------------------------------|
 |-----------------------------------|----------------------------------|
 |-----------------------------------|----------------------------------|

|
| W +Q. E E E E E
 
 |-----------------------------------|----------------------------------|
 |-----------------------------------|----------------------------------|
 |-----------------------------------|----------------------------------|
 |---2-------------------------------|--(2)-----------2---2--2-----2--2-|
 |---0-------------------------------|--(0)-----------0---0--0-----0--0-|
 |-----------------------------------|----------------------------------|

H.=H
G/D D DV D C D G/B D
Gtr I
[E]| [E]| [E]| [E]| [E]| [E]| [E]| [E]|
[/] [/] [/] [/] [/] [/] [/] [/] 
Gtr IV
Q E A E E A E E A E
 
 |-17-------17----------20-17s19------19---19s22--||
 |-------------20s22------------------------------||
 |------------------------------------------------||
 |------------------------------------------------||
 |------------------------------------------------||
 |------------------------------------------------||

|
| Gtr III
| ~~~
| S E. E E A Q A Q
 
 |-17-------17----16-19s21---------21s22----------||
 |------------------------------------------------||
 |------------------------------------------------||
 |------------------------------------------------||
 |------------------------------------------------||
 |----17------------------------------------------||

|
| Gtr II
 
 | |---3---|

| Q Q Q E E +E
 
 |------------------------------------------------||
 |------------------------------------------------||
 |------------------------------------------------||
 |------------------------------------------------||
 |-----------------------3p======0----------------||
 |--3--------2-------------------------3b5----(3)-||

Free Time
[A] W W W W W
|
[/]  
<
~~
+Q Q H W W a H. Q W
 

Important: The song above is NOT stored on the Chordie server. The original song is hosted at www.guitartabs.cc. Chordie works as a search engine and provides on-the-fly formatting. Chordie does not index songs against artists'/composers' will. To remove this song please click here.

Text color:
Chord color:
Chord grids: 
Font size:    
Page size: 

A A7 D D/F# D7 E G G/D
Rate #1 of 3 versions

Login - add to songbook

SHARE PAGE  



You need to log in to post comments