Guitar Tabs, Chords and Lyrics
Server problems seems to be fixed. Chordie has been experiencing problems with songs disappearing. These issues now seems to be fixed, but still verifying the fix. If you find anything strange, please email admin@chordie.com.


Slow Ride   Foghat

 
 G------------------
 D------------------
 A--------------5-3-
 E--5-5-5-5-5-5-----

 


 


 That's how I do it.Just simply playing the note sounds good,too.It might


 be right just playing it anyways.


 


 The Verse


 When verse starts Then everytime after


 

 
 G-----------------|---------------
 D-----------------|---------------
 A-------------5-3-|-----------5-3-
 E-0-5---5---5-----|-5---5---5-----

 


 


 .I just wanna make...Love to you


 

 
 G-----------------------------------
 D-----------------------------------
 A----------------------------------3
 E-0----------------------3----------

 


 


 There's part part in the middle when the guitar just plays a D.THe bass


 just goes off.Since you are reading this you all are pros at bass,right.


 I always just make it up and D scale up the neck.Whatever you do is fine,


 cause this the bass lead,and havin fun and doin your thing is what it's about


 


 The ending of that D run ends just like the chorus


 

 
 G-----------------------------------
 D-----------------------------------
 A----------------------------------3
 E-0----------------------3----------


Important: The song above is NOT stored on the Chordie server. The original song is hosted at www.guitartabs.cc. Chordie works as a search engine and provides on-the-fly formatting. Chordie does not index songs against artists'/composers' will. To remove this song please click here.

This song is displayed as text-only. Transposing and tuning is only available for chordpro-songs.
Rate #1 of 4 versions

Jango Player

Login - add to songbook

SHARE PAGE  




You need to log in to post comments