Guitar Tabs, Chords and Lyrics
Server problems seems to be fixed. Chordie has been experiencing problems with songs disappearing. These issues now seems to be fixed, but still verifying the fix. If you find anything strange, please email admin@chordie.com.


Stay With Me  Foghat

STAY WITH ME
BY FOGHAT
FROM THE ALBUMN STONE BLUE
MUSIC BY LONESOME DAVE PEVERETT/ROD PRICE
RIFF BROS. MUSIC-ASCAP
Tabbed by: Ross/Nick
Standard tuning
(Another great song by Foghat)
(Intro)
 
 E|-------3------|-------3------|-------0------|-------0------|
 B|---3------3---|---3------3---|---0------0---|---0------0---|
 G|--------------|--------------|--------------|--------------|
 D|-5---5------5-|-4---4------4-|-2---2------2-|-0---0------0-|
 A|--------------|--------------|--------------|--------------|
 E|--------------|--------------|--------------|--------------|
 E|--------------|----------0-|--------2-----0-----2-----|
 B|-------1------|-------3----|---3------3-----3-----3---|
 G|---0------0---|---2--------|-----2--------------------|
 D|--------------|------------|-0----------0-----0-----0-|
 A|-3---3------3-|-0---0------|--------------------------|
 E|--------------|------------|--------------------------|
 E|-------3------|-------3------|-------0------|-------0------|
 B|---3------3---|---3------3---|---0------0---|---0------0---|
 G|--------------|--------------|--------------|--------------|
 D|-5---5------5-|-4---4------4-|-2---2------2-|-0---0------0-|
 A|--------------|--------------|--------------|--------------|
 E|--------------|--------------|--------------|--------------|
 E|--------------|----------0-|--------2-----0-----2-----|
 B|-------1------|-------3----|---3------3-----3-----3---|
 G|---0------0---|---2--------|-----2--------------------|
 D|--------------|------------|-0----------0-----0-----0-|
 A|-3---3------3-|-0---0------|--------------------------|
 E|--------------|------------|--------------------------|
 E|--------2-----0-----2-----|
 B|---3------3-----3-----3---|
 G|-----2--------------------|
 D|-0----------0-----0-----0-|
 A|--------------------------|
 E|--------------------------|

(Verse 1)
 
 E|-------3------|-------3------|-------3------|-------3------|
 B|---3------3---|---3------3---|---3------3---|---3------3---|
 G|--------------|--------------|--------------|--------------|
 D|-5---5------5-|-4---4------4-|-3---3------3-|-2---2------2-|
 A|--------------|--------------|--------------|--------------|
 E|--------------|--------------|--------------|--------------|

If I could be with you tonight,
 
 E|-------3------|-------3------|-------3------|-------3------|
 B|---3------3---|---3------3---|---3------3---|---3------3---|
 G|--------------|--------------|--------------|--------------|
 D|-5---5------5-|-4---4------4-|-3---3------3-|-2---2------2-|
 A|--------------|--------------|--------------|--------------|
 E|--------------|--------------|--------------|--------------|

I would never let you down.
 
 E|-------3------|-------3------|-------0------|-------0------|
 B|---3------3---|---3------3---|---0------0---|---0------0---|
 G|--------------|--------------|--------------|--------------|
 D|-5---5------5-|-4---4------4-|-2---2------2-|-0---0------0-|
 A|--------------|--------------|--------------|--------------|
 E|--------------|--------------|--------------|--------------|

I would comfort you, rub away the blue,
 
 E|--------------|---------------|--------2-----0-----2-----|
 B|-------1------|-------3-------|---3------3-----3-----3---|
 G|---0------0---|---0-------0---|-----2--------------------|
 D|--------------|---------------|-0----------0-----0-----0-|
 A|-3---3------3-|-2---2-------2-|--------------------------|
 E|--------------|---------------|--------------------------|

speaking words without a sound,
 
 E|--------------|---------------|--------3-----2-----0-----|
 B|-------1------|-------3-------|---3------3-----3-----3---|
 G|---0------0---|---0-------0---|-----2--------------------|
 D|--------------|---------------|-0----------0-----0-----0-|
 A|-3---3------3-|-2---2-------2-|--------------------------|
 E|--------------|---------------|--------------------------|

I would never let you down.
(Verse 2)
 
 E|-------3------|-------3------|-------3------|-------3------|
 B|---3------3---|---3------3---|---3------3---|---3------3---|
 G|--------------|--------------|--------------|--------------|
 D|-5---5------5-|-4---4------4-|-3---3------3-|-2---2------2-|
 A|--------------|--------------|--------------|--------------|
 E|--------------|--------------|--------------|--------------|

Like a shadow in the night,
 
 E|-------3------|-------3------|-------3------|-------3------|
 B|---3------3---|---3------3---|---3------3---|---3------3---|
 G|--------------|--------------|--------------|--------------|
 D|-5---5------5-|-4---4------4-|-3---3------3-|-2---2------2-|
 A|--------------|--------------|--------------|--------------|
 E|--------------|--------------|--------------|--------------|

Time is slowly movin on,
 
 E|-------3------|-------3------|-------0------|-------0------|
 B|---3------3---|---3------3---|---0------0---|---0------0---|
 G|--------------|--------------|--------------|--------------|
 D|-5---5------5-|-4---4------4-|-2---2------2-|-0---0------0-|
 A|--------------|--------------|--------------|--------------|
 E|--------------|--------------|--------------|--------------|

Hours go drifting by, There's no need to cry,
 
 E|--------------|---------------|--------2-----0-----2-----|
 B|-------1------|-------3-------|---3------3-----3-----3---|
 G|---0------0---|---0-------0---|-----2--------------------|
 D|--------------|---------------|-0----------0-----0-----0-|
 A|-3---3------3-|-2---2-------2-|--------------------------|
 E|--------------|---------------|--------------------------|

Now at last I found someone,
 
 E|--------------|---------------|-2-|
 B|-------1------|-------3-------|-3-|
 G|---0------0---|---0-------0---|-2-|
 D|--------------|---------------|-0-|
 A|-3---3------3-|-2---2-------2-|---|
 E|--------------|---------------|---|

Finally, Our time has come. D
(Chorus)
[G] [G] [D]  
 
 E|3~-xx---3-xx--3--xx--|-2-|-2p0---0h2-|
 B|3~-xx---3-xx--3--xx--|-3-|-----3-----|
 G|0~-xx---0-xx--0--xx--|-2-|-----------|
 D|0~-xx---0-xx--0--xx--|-0-|-----------|
 A|2~-xx---2-xx--2--xx--|---|-----------|
 E|3~-xx---3-xx--3--xx--|---|-----------|

Stay,won't you stay with me
G G csus2 C D D sus4
 
 E|----------3~--xx-3-xx-3---3---3-3-|-2h3-3-3-|
 B|----------3~--xx-3-xx-3---3---3-3-|-3---3-3-|
 G|----------0~--xx-0-xx-0---0---0-0-|-2---2-2-|
 D|----------0~--xx-0-xx-0---0h2-2-2-|-0---0-0-|
 A|----------2~--xx-2-xx-2---3---3-3-|---------|
 E|----------3~--xx-3-xx-3-----------|---------|

Take my time Love will set me free.........
[G] [G] [D]  
 
 E|3~-xx---3-xx--3--xx--|-2-|-2p0---0h2-|
 B|3~-xx---3-xx--3--xx--|-3-|-----3-----|
 G|0~-xx---0-xx--0--xx--|-2-|-----------|
 D|0~-xx---0-xx--0--xx--|-0-|-----------|
 A|2~-xx---2-xx--2--xx--|---|-----------|
 E|3~-xx---3-xx--3--xx--|---|-----------|

Stay,won't you stay with me
[G] [G] [C] [D] 
 
 E|----------3--33---3---3-------------------2-|
 B|----------3--33---3---3-------------------3-|
 G|----------0--00---0---0-------0-------0---2-|
 D|----------0--00---0---0-----2-------0-----0-|
 A|----------2--22---2---2---3----3--2-----2---|
 E|----------3--33---3---3---------------------|

Take my time Love will set me free.........
(Verse 3)
 
 E|-------3------|-------3------|-------3------|-------3------|
 B|---3------3---|---3------3---|---3------3---|---3------3---|
 G|--------------|--------------|--------------|--------------|
 D|-5---5------5-|-4---4------4-|-3---3------3-|-2---2------2-|
 A|--------------|--------------|--------------|--------------|
 E|--------------|--------------|--------------|--------------|

All my worries fade away,
 
 E|-------3------|-------3------|-------3------|-------3------|
 B|---3------3---|---3------3---|---3------3---|---3------3---|
 G|--------------|--------------|--------------|--------------|
 D|-5---5------5-|-4---4------4-|-3---3------3-|-2---2------2-|
 A|--------------|--------------|--------------|--------------|
 E|--------------|--------------|--------------|--------------|

Dreams become reality,
 
 E|-------3------|-------3------|-------0------|-------0------|
 B|---3------3---|---3------3---|---0------0---|---0------0---|
 G|--------------|--------------|--------------|--------------|
 D|-5---5------5-|-4---4------4-|-2---2------2-|-0---0------0-|
 A|--------------|--------------|--------------|--------------|
 E|--------------|--------------|--------------|--------------|

Finding love on time, Gave me peace of mind,
 
 E|--------------|---------------|--------2-----0-----2-----|
 B|-------1------|-------3-------|---3------3-----3-----3---|
 G|---0------0---|---0-------0---|-----2--------------------|
 D|--------------|---------------|-0----------0-----0-----0-|
 A|-3---3------3-|-2---2-------2-|--------------------------|
 E|--------------|---------------|--------------------------|

Knowing how real love can be,
 
 E|--------------|---------------|--------3-----2-----0-----|
 B|-------1------|-------3-------|---3------3-----3-----3---|
 G|---0------0---|---0-------0---|-----2--------------------|
 D|--------------|---------------|-0----------0-----0-----0-|
 A|-3---3------3-|-2---2-------2-|--------------------------|
 E|--------------|---------------|--------------------------|

More than just a fantasy.
(Guitar fill- 2:13
 
 E|------------------------|-----------------------|
 B|--10b12---10p8-10-8---8-|-10b12--15--10b12--10~~|
 G|--------------------9---|-----------------------|
 D|------------------------|-----------------------|
 A|------------------------|-----------------------|
 E|------------------------|-----------------------|

(Chorus)
[G] [G] [D]  
 
 E|3~-xx---3-xx--3--xx--|-2-|-2p0---0h2-|
 B|3~-xx---3-xx--3--xx--|-3-|-----3-----|
 G|0~-xx---0-xx--0--xx--|-2-|-----------|
 D|0~-xx---0-xx--0--xx--|-0-|-----------|
 A|2~-xx---2-xx--2--xx--|---|-----------|
 E|3~-xx---3-xx--3--xx--|---|-----------|

Stay,won't you stay with me
G G csus2 C D D sus4
 
 E|----------3~--xx-3-xx-3---3---3-3-|-2h3-3-3-|
 B|----------3~--xx-3-xx-3---3---3-3-|-3---3-3-|
 G|----------0~--xx-0-xx-0---0---0-0-|-2---2-2-|
 D|----------0~--xx-0-xx-0---0h2-2-2-|-0---0-0-|
 A|----------2~--xx-2-xx-2---3---3-3-|---------|
 E|----------3~--xx-3-xx-3-----------|---------|

Take my time Love will set me free.........
[G] [G] [D]  
 
 E|3~-xx---3-xx--3--xx--|-2-|-2p0---0h2-|
 B|3~-xx---3-xx--3--xx--|-3-|-----3-----|
 G|0~-xx---0-xx--0--xx--|-2-|-----------|
 D|0~-xx---0-xx--0--xx--|-0-|-----------|
 A|2~-xx---2-xx--2--xx--|---|-----------|
 E|3~-xx---3-xx--3--xx--|---|-----------|

Stay,won't you stay with me
[G] [G] [C] [D] 
 
 E|----------3--33---3---3-------------------2-|
 B|----------3--33---3---3-------------------3-|
 G|----------0--00---0---0-------0-------0---2-|
 D|----------0--00---0---0-----2-------0-----0-|
 A|----------2--22---2---2---3----3--2-----2---|
 E|----------3--33---3---3---------------------|

Take my time Love will set me free.........
(Guitar Solo-2:44)
 
 E|--------------|-----------|-----------------|-----------------|
 B|-10b12--10b12-|-8~----8---|-8----10b12---8~-|--8---8~----10-8-|
 G|--------------|---------9-|---9-------------|----9------------|
 D|--------------|-----------|-----------------|-----------------|
 A|--------------|-----------|-----------------|-----------------|
 E|--------------|-----------|-----------------|-----------------|

Pick harmonic
 
 E|-10-10-----------|-10b12----10-8------|
 B|--------8~-----8-|---------------10-8-|
 G|-------------9---|--------------------|
 D|-----------------|--------------------|
 A|-----------------|--------------------|
 E|-----------------|--------------------|
 E|----------------------------|-------8-----7------|
 B|-10b12-10-8---8-10b12-10b12-|-10~-----10----8----|
 G|------------9---------------|------------------7~|
 D|----------------------------|--------------------|
 A|----------------------------|--------------------|
 E|----------------------------|--------------------|
 E|----------|---------------|-15~---------|------------------------|
 B|-12~---13-|--15~----12----|-------12-13-|-15-13-12----12---------|
 G|----------|------------12-|-------------|----------14----14-12-9-|
 D|----------|---------------|-------------|------------------------|
 A|----------|---------------|-------------|------------------------|
 E|----------|---------------|-------------|------------------------|
 E|----------------------|--------------------|
 B|----------------------|--------------------|
 G|-12-9------12---------|--------------------|
 D|------12-9-12-9--7----|-7-9----9-7----7----|
 A|-------------------10-|------------10---10-|
 E|----------------------|-----10-------------|
 E|---------|--------------|----------|--------15-------|
 B|---------|---------8-10-|-10s12--13|-15b17~----17-15~|
 G|---------|-7---9--------|----------|-----------------|
 D|-5s7~~-9-|---9---9------|----------|-----------------|
 A|---------|--------------|----------|-----------------|
 E|---------|--------------|----------|-----------------|
 E|-------------10~~|----------12~|
 B|-12~---13~-------|---12--------|
 G|-----------------|------12-----|
 D|-----------------|-------------|
 A|-----------------|-------------|
 E|-----------------|-------------|
 E|-15~--15h17~~--15h17~~--15h17~~--15h17~-17b19-17b19-17-15~-|
 B|-----------------------------------------------------------|
 G|-----------------------------------------------------------|
 D|-----------------------------------------------------------|
 A|-----------------------------------------------------------|
 E|-----------------------------------------------------------| 

(Chorus)
[G] [G] [D]  
 
 E|3~-xx---3-xx--3--xx--|-2-|-2p0---0h2-|
 B|3~-xx---3-xx--3--xx--|-3-|-----3-----|
 G|0~-xx---0-xx--0--xx--|-2-|-----------|
 D|0~-xx---0-xx--0--xx--|-0-|-----------|
 A|2~-xx---2-xx--2--xx--|---|-----------|
 E|3~-xx---3-xx--3--xx--|---|-----------|

Stay,won't you stay with me
G G csus2 C D D sus4
 
 E|----------3~--xx-3-xx-3---3---3-3-|-2h3-3-3-|
 B|----------3~--xx-3-xx-3---3---3-3-|-3---3-3-|
 G|----------0~--xx-0-xx-0---0---0-0-|-2---2-2-|
 D|----------0~--xx-0-xx-0---0h2-2-2-|-0---0-0-|
 A|----------2~--xx-2-xx-2---3---3-3-|---------|
 E|----------3~--xx-3-xx-3-----------|---------|

Take my time Love will set me free.........
[G] [G] [D]  
 
 E|3~-xx---3-xx--3--xx--|-2-|-2p0---0h2-|
 B|3~-xx---3-xx--3--xx--|-3-|-----3-----|
 G|0~-xx---0-xx--0--xx--|-2-|-----------|
 D|0~-xx---0-xx--0--xx--|-0-|-----------|
 A|2~-xx---2-xx--2--xx--|---|-----------|
 E|3~-xx---3-xx--3--xx--|---|-----------|

Stay,won't you stay with me
[G] [G] [C] [D] 
 
 E|----------3--33---3---3-------------------2-|
 B|----------3--33---3---3-------------------3-|
 G|----------0--00---0---0-------0-------0---2-|
 D|----------0--00---0---0-----2-------0-----0-|
 A|----------2--22---2---2---3----3--2-----2---|
 E|----------3--33---3---3---------------------|

Take my time Love will set me free.........
 
 E|-------15--------15--------15--------15-------15--------|
 B|-15h17-----15h17-----15h17-----15h17----15h17----15h17~-|
 G|--------------------------------------------------------|
 D|--------------------------------------------------------|
 A|--------------------------------------------------------|
 E|--------------------------------------------------------|

(Chorus)
[G] [G] [D]  
 
 E|3~-xx---3-xx--3--xx--|-2-|-2p0---0h2-|
 B|3~-xx---3-xx--3--xx--|-3-|-----3-----|
 G|0~-xx---0-xx--0--xx--|-2-|-----------|
 D|0~-xx---0-xx--0--xx--|-0-|-----------|
 A|2~-xx---2-xx--2--xx--|---|-----------|
 E|3~-xx---3-xx--3--xx--|---|-----------|

Stay,won't you stay with me
G G csus2 C D D sus4
 
 E|----------3~--xx-3-xx-3---3---3-3-|-2h3-3-3-|
 B|----------3~--xx-3-xx-3---3---3-3-|-3---3-3-|
 G|----------0~--xx-0-xx-0---0---0-0-|-2---2-2-|
 D|----------0~--xx-0-xx-0---0h2-2-2-|-0---0-0-|
 A|----------2~--xx-2-xx-2---3---3-3-|---------|
 E|----------3~--xx-3-xx-3-----------|---------|

Take my time Love will set me free.........Yeah!!!
(Outro and fade)
 
 E|-22-22-22s20--20-20-20s19|-19-19-19s17-17-17-17s15-15-15-15----|
 B|-------------------------|----------------------------------17-|
 G|-------------------------|-------------------------------------|
 D|-------------------------|-------------------------------------|
 A|-------------------------|-------------------------------------|
 E|-------------------------|-------------------------------------|
 E|------|-------15-------15-------15--------15-|
 B|--15~-|-15h17----15h17----15h17----15h17-----|
 G|------|--------------------------------------|
 D|------|--------------------------------------|
 A|------|--------------------------------------|
 E|------|--------------------------------------| 


Important: The song above is NOT stored on the Chordie server. The original song is hosted at www.guitartabs.cc. Chordie works as a search engine and provides on-the-fly formatting. Chordie does not index songs against artists'/composers' will. To remove this song please click here.

Text color:
Chord color:
Chord grids: 
Font size:    
Page size: 

C D G
Rate #0 of 2 versions

Jango Player

Login - add to songbook

SHARE PAGE  




You need to log in to post comments