Guitar Tabs, Chords and Lyrics
Major upgrade!! After one year development the new version of Chordie is now online! Please give feedback.


Afterbirth   From First to Last

 
 e[-----------------------------------------------------]
 B[-----------------------------------------------------]
 G[-----------------------------------------------------]
 D[-----------------------------------------------------]
 A[-1-1-1-1-2-2-2-2-1-1-1-1-2-1-2~-2-2-2-2-1-1-1-1-2-1-2]
 E[-1-1-1-1-2-2-2-2-1-1-1-1-2-1-2~-2-2-2-2-1-1-1-1-2-1-2]
 e[------------------------------------]
 B[------------------------------------]
 G[------------------------------------]
 D[------------------------------------]
 A[-2-2-2-2-1-1-1-1-2-2-2-2-1-2-1-2-1-1]
 E[-2-2-2-2-1-1-1-1-2-2-2-2-1-2-1-2-1-1]
 e[-----------------------------------------------------------------------]
 B[-----------------------------------------------------------------------]
 G[-----------------------------------------------------------------------]
 D[-----------------------------------------------------------------------]
 A[--1-1-1-1-1-2-2-2-2-2-3-3-3-3-3-2-2-2-2-2-2-2-2-2-2-1-1-1-1-1-5-5-5-5-5]
 E[--1-1-1-1-1-2-2-2-2-2-3-3-3-3-3-2-2-2-2-2-2-2-2-2-2-1-1-1-1-1-5-5-5-5-5]

 


 i was born..........................


 


 

 
 e[----------]
 B[----------]
 G[----------]


Important: The song above is NOT stored on the Chordie server. The original song is hosted at www.guitartabs.cc. Chordie works as a search engine and provides on-the-fly formatting. Chordie does not index songs against artists'/composers' will. To remove this song please click here.

This song is displayed as text-only. Transposing and tuning is only available for chordpro-songs.
Rate #1 of 1 versions

Jango Player

Login - add to songbook

SHARE PAGE  



You need to log in to post comments