Guitar Tabs, Chords and Lyrics
Server problems seems to be fixed. Chordie has been experiencing problems with songs disappearing. These issues now seems to be fixed, but still verifying the fix. If you find anything strange, please email admin@chordie.com.


Bad Day  Fuel

This is the real way to play this song. I have the Fuel Guitar book so
everything is right.
[A] [Asus2] [A] Had a bad day again, [A] [Asus2] [A] She said I would not
un[Asus2]derstand. [F#m11] she left a note and said im [D]sorry i,
[Dm] had a b[Dm6]ad day again. [A] [Asus2] [A] Spilled her coffee broke her
shoelace. [A] Smeared the lipstick on[Asus2] her face,[F#m11] slammed the door and
said im [D]sorry i,[Dm] i've had a [Dm6]bad day again. [A] [Asus2] [A]
And she swears [D] theres nothi[E]n' [F#m]wrong. [E]i heard her [D]playin'
that same [E]old [F#m]song. she [E]puts me off [D] and puts me [Bm] on, [B2]
[Bm] and had a [B2]bad day[Bm] again. [A] she said i would not und[Asus2]erstand
[F#m11] and left a note and said im [D]sorry i, [Dm] i had a [Dm6]bad day again.[A]
Solo (elec. guitar w/dist.)
 
 e |------------------------------------------------|
 B |------------------------------------------------|
 G |----------6---------------------6---------------|
 D |----6--7-----7--6^----------6/7---7-6^----------|
 A |-7-------------------7--------------------------|
 e |------------------------------------------------|
 e |---------------------------------------------------|
 B |---------------------------------------------------|
 G |------6---------------------------6--------9-------|
 D |-6/7-----7--6^---------------6/7-----7--6----------|
 A |----------------7--7^--7---------------------------|
 e |---------------------------------------------------|

And she swears [D] theres nothi[E]n' [F#m]wrong. [E]i heard her [D]playin'
that same [E]old [F#m]song. she [E]puts me off [D] and puts me [Bm] on, [B2]
[Bm] and had a [B2]bad day[Bm] again. [A] she said i would not und[Asus2]erstand
[F#m11] and left a note and said im [D]sorry i, [Dm] i had a [Dm6]bad day
end solo
 
 e |------------------------------------------------------------|
 B |------------------------------------------------------------|
 G |-------6----------------------------6-----------------------|
 D |-6--7-----7--6---6^-----------6--7-----7--6--6^-------------|
 A |----------------------7--------------------------7----------|
 e |------------------------------------------------------------|
 e |--------------------------------------|
 B |--------------------------------------|
 G |-------6------------------------------|
 D |-6--7-----7--6--6^--------------------|
 A |--------------------7^---7--7---------|
 e |-------------------bend-hold--release-|

peace out rock on live long much love

Important: The song above is NOT stored on the Chordie server. The original song is hosted at www.guitartabs.cc. Chordie works as a search engine and provides on-the-fly formatting. Chordie does not index songs against artists'/composers' will. To remove this song please click here.

Text color:
Chord color:
Chord grids: 
Font size:    
Page size: 

A Asus2 B2 Bm D Dm Dm6 E F#m F#m11
Rate #1 of 18 versions

Jango Player

Login - add to songbook

SHARE PAGE  




You need to log in to post comments