Guitar Tabs, Chords and Lyrics
Server problems seems to be fixed. Chordie has been experiencing problems with songs disappearing. These issues now seems to be fixed, but still verifying the fix. If you find anything strange, please email admin@chordie.com.


Quarter  Fuel

Song: Quarter
Album: Natural Selection
Tabbed by Timothy Maxwell (timmax9@hotmail.com)
7-string guitar in dropped-A tuning: A E A D G B E
CHORDS:
A5: 000XXXX Bb5: 111XXXX Eb5: 666XXXX
C5: 333XXXX D5: 555XXXX G5: 10XXXXX
INTRO: (0:00)
[A5]  
 
 |----------------------------|-------------------------|
 |----------------------------|-------------------------|
 |----------------------------|-------------------------|
 |----------------------------|-------------------------|
 |-0--------------------------|-------------------------|
 |-0--------------------------|-------------------------|
 |-0--------------------------|-------------------------| Gtr. 1 (dist.)

| Hold
|
 
 |-12-12-12-12-12-12-12-12-12-|-13-13-13-13-13-13-13-13-|
 |----------------------------|-------------------------|
 |-9--9--9--9--9--9--9--9--9--|-10-10-10-10-10-10-10-10-|
 |----------------------------|-------------------------|
 |----------------------------|-------------------------|
 |----------------------------|-------------------------|
 |----------------------------|-------------------------| Gtr. 2 (w/wah)

VERSE 1: (0:08)
I know I'm dead before my time I know it's coming down
[A5] [C5] [A5] [A5] [C5] [A5] [G5]  
 
 |--------------------------------|------------------------------|
 |--------------------------------|------------------------------|
 |--------------------------------|------------------------------|
 |--------------------------------|------------------------------|
 |--------------------------0---0-|------------------------------|
 |-0---3b-(3)-0-0-0---0-0---0-0-0-|-0---3b-(3)-0---0-0-----------|
 |-0---3b-(3)-0-0-0---0-0---0-0-0-|-0---3b-(3)-0---0-0-10v~------|

If you could only see what's right, you'd see what's comin' round
[A5] [C5] [A5] [A5] [C5] [A5] [G5]  
 
 |--------------------------------|------------------------------|
 |--------------------------------|------------------------------|
 |--------------------------------|------------------------------|
 |--------------------------------|------------------------------|
 |--------------------------0---0-|------------------------------|
 |-0---3b-(3)-0-0-0---0-0---0-0-0-|-0---3b-(3)-0---0-0-----------|
 |-0---3b-(3)-0-0-0---0-0---0-0-0-|-0---3b-(3)-0---0-0-10v~------|

CHORUS: (0:24)
(So I,_______________)
walk alone, I ask no quarter
[A5] [Bb5] [A5] [C5] [D5]  
 
 |-----------------------|----------------------|
 |-----------------------|----------------------|
 |-----------------------|----------------------|
 |-----------------------|----------------------|
 |-0--------0-0-1----1-1-|-0------3---3---5---5-|
 |-0--------0-0-1----1-1-|-0------3---3---5---5-|
 |-0--------0-0-1----1-1-|-0------3---3---5---5-|

|
 
 |-12-12-12-12-13-13-13--|-12-12--10-10---8--8--|
 |-----------------------|----------------------|
 |-9--9--9--9--10-10-10--|-10-10--7--7----5--5--|
 |-----------------------|----------------------|
 |-----------------------|----------------------|
 |-----------------------|----------------------|
 |-----------------------|----------------------|

(I,__________________)
friend walk alone, till I find you
[A5] [Bb5] [A5] [C5] [D5]  
 
 |-----------------------|----------------------|
 |-----------------------|----------------------|
 |-----------------------|----------------------|
 |-----------------------|----------------------|
 |-0--------0-0-1----1-1-|-0------3---3---5---5-|
 |-0--------0-0-1----1-1-|-0------3---3---5---5-|
 |-0--------0-0-1----1-1-|-0------3---3---5---5-|

|
 
 |-12-12-12-12-13-13-13--|-12-12--10-10---8--8--|
 |-----------------------|----------------------|
 |-9--9--9--9--10-10-10--|-10-10--7--7----5--5--|
 |-----------------------|----------------------|
 |-----------------------|----------------------|
 |-----------------------|----------------------|
 |-----------------------|----------------------|

again,_________ ________________
[A5]  
 
 |----------------------------|-------------------------|
 |----------------------------|-------------------------|
 |----------------------------|-------------------------|
 |----------------------------|-------------------------|
 |-0--------------------------|-------------------------|
 |-0--------------------------|-------------------------|
 |-0--------------------------|-------------------------|

| Hold
|
 
 |-12-12-12-12-12-12-12-12-12-|-13-13-13-13-13-13-13-13-|
 |----------------------------|-------------------------|
 |-9--9--9--9--9--9--9--9--9--|-10-10-10-10-10-10-10-10-|
 |----------------------------|-------------------------|
 |----------------------------|-------------------------|
 |----------------------------|-------------------------|
 |----------------------------|-------------------------|

VERSE 2: (0:48)
I know no place to call me bed but I know this thorny crown
[A5] [C5] [A5] [A5] [C5] [A5] [G5]  
 
 |--------------------------------|------------------------------|
 |--------------------------------|------------------------------|
 |--------------------------------|------------------------------|
 |--------------------------------|------------------------------|
 |--------------------------0---0-|------------------------------|
 |-0---3b-(3)-0-0-0---0-0---0-0-0-|-0---3b-(3)-0---0-0-----------|
 |-0---3b-(3)-0-0-0---0-0---0-0-0-|-0---3b-(3)-0---0-0-10v~------|

|
 
 |--------------------------------|------------------------------|
 |--------------------------------|------------------------------|
 |-9----9----9--9---9----10-10----|-9----9----9--------7-7---5---|
 |--------------------------------|------------------------------|
 |-7----7----7--7---7----8--8-----|-7----7----7--------5-5---3---|
 |--------------------------------|------------------------------|
 |--------------------------------|------------------------------|

If you could only feed your head, you'd see your hands are bound
[A5] [C5] [A5] [A5] [C5] [A5] [G5]  
 
 |--------------------------------|------------------------------|
 |--------------------------------|------------------------------|
 |--------------------------------|------------------------------|
 |--------------------------------|------------------------------|
 |--------------------------0---0-|------------------------------|
 |-0---3b-(3)-0-0-0---0-0---0-0-0-|-0---3b-(3)-0---0-0-----------|
 |-0---3b-(3)-0-0-0---0-0---0-0-0-|-0---3b-(3)-0---0-0-10v~------|

|
 
 |--------------------------------|------------------------------|
 |--------------------------------|------------------------------|
 |-9----9----9--9---9----10-10----|-9----9----9--------7-7---5---|
 |--------------------------------|------------------------------|
 |-7----7----7--7---7----8--8-----|-7----7----7--------5-5---3---|
 |--------------------------------|------------------------------|
 |--------------------------------|------------------------------|

CHORUS: (1:04)
(So I,_______________)
walk alone, I ask no quarter
[A5] [Bb5] [A5] [C5] [D5]  
 
 |-12-12-12-12-13-13-13--|-12-12--10-10---8--8--|
 |-----------------------|----------------------|
 |-9--9--9--9--10-10-10--|-10-10--7--7----5--5--|
 |-----------------------|----------------------|
 |-----------------------|----------------------|
 |-----------------------|----------------------|
 |-----------------------|----------------------| (Gtr. 2 w/wah)

(I,__________________)
friend walk alone, till I find you
[A5] [Bb5] [A5] [C5] [D5]  
 
 |-12-12-12-12-13-13-13--|-12-12--10-10---8--8--|
 |-----------------------|----------------------|
 |-9--9--9--9--10-10-10--|-10-10--7--7----5--5--|
 |-----------------------|----------------------|
 |-----------------------|----------------------|
 |-----------------------|----------------------|
 |-----------------------|----------------------|

again,______
[D5] [Eb5]  
 
 |--------------|-------------|
 |--------------|-------------|
 |--------------|-------------|
 |--------------|-------------|
 |--------------|-------------|
 |-X-X-5-----5--|-----6---6---|
 |-X-X-5-0-0-5--|---0-6---6---| 

|
 
 |-10-10-10-10--|-10-11-11-11-|
 |--------------|-------------|
 |-7--7--7--7---|-7--8--8--8--|
 |--------------|-------------|
 |--------------|-------------|
 |--------------|-------------|
 |--------------|-------------|

[A5]  
 
 |----------------------------|-------------------------|
 |----------------------------|-------------------------|
 |----------------------------|-------------------------|
 |----------------------------|-------------------------|
 |-0--------------------------|-------------------------|
 |-0--------------------------|-------------------------|
 |-0--------------------------|-------------------------|

| Hold
|
 
 |-12-12-12-12-12-12-12-12-12-|-13-13-13-13-13-13-13-13-|
 |----------------------------|-------------------------|
 |-9--9--9--9--9--9--9--9--9--|-10-10-10-10-10-10-10-10-|
 |----------------------------|-------------------------|
 |----------------------------|-------------------------|
 |----------------------------|-------------------------|
 |----------------------------|-------------------------|

GUITAR SOLO: (1:32)
[A5] [C5] [A5] [A5] [C5] [A5]  
 
 |-17-15-17---15-13-15-13-|-------------------------------|
 |------------------------|-15h17p15-13h15p13-12h13p12\10-|
 |------------------------|-------------------------------|
 |------------------------|-------------------------------|
 |------------------------|-------------------------------|
 |------------------------|-------------------------------|
 |------------------------|-------------------------------|

[A5] [C5] [A5] [A5] [C5] [A5]  
 
 |---------------------------------------|-10---8---6---5----------|
 |-12-12-11-11-9-9-7-7-5-5-4-4-2-2-2p0-0-|-----------------7h9p7v~-|
 |---------------------------------------|-------------------------|
 |---------------------------------------|-------------------------|
 |---------------------------------------|-------------------------|
 |---------------------------------------|-------------------------|
 |---------------------------------------|-------------------------|

CHORUS: (1:48)
(So I,_______________)
walk alone, I ask no quarter
[A5] [Bb5] [A5] [C5] [D5]  
 
 |-----------------------|----------------------|
 |-5------------15-------|-14------15-----------|
 |-----------------14----|----14-------14-------|
 |-----------------------|----------------------|
 |-----------------------|----------------------|
 |-----------------------|----------------------|
 |-----------------------|----------------------| Gtr. 2 (w/wah)

(I,__________________)
friend walk alone, till I find you
[A5] [Bb5] [A5] [C5] [D5]  
 
 |-----------------------|----------------------|
 |-14------------15------|-14--------15-----17--|
 |----14------------14---|----14----------------|
 |-----------------------|----------------------|
 |-----------------------|----------------------|
 |-----------------------|----------------------|
 |-----------------------|----------------------|

again,______
[D5] [Eb5]  
 
 |-17b---15---14-15-17-15----|
 |---------------------------|
 |---------------------------|
 |---------------------------|
 |---------------------------|
 |---------------------------|
 |---------------------------|

[A5]  
 
 |-12-12-12-12-12-12-12-12-12-|-13-13-13-13-13-13-13-13-|
 |----------------------------|-------------------------|
 |-9--9--9--9--9--9--9--9--9--|-10-10-10-10-10-10-10-10-|
 |----------------------------|-------------------------|
 |----------------------------|-------------------------|
 |----------------------------|-------------------------|
 |----------------------------|-------------------------|

INTERLUDE: Half-time Feel (2:16)
[A5]  
 
 |-17-17-17---15---13h15p13-|-12h13p12---10-10-8-12---8-8h10p8-|
 |--------------------------|----------------------------------|
 |--------------------------|----------------------------------|
 |--------------------------|----------------------------------|
 |--------------------------|----------------------------------|
 |--------------------------|----------------------------------|
 |--------------------------|----------------------------------|

I walk alone I walk alone
[A5] [Bb5] [A5] [Bb5]  
 
 |--------------------------|----------------------------------|
 |-10v~---3-5-6-5----3h5p3--|-5---3v~--------------------------|
 |--------------------------|----------------------------------|
 |--------------------------|----------------------------------|
 |--------------------------|----------------------------------|
 |--------------------------|----------------------------------|
 |--------------------------|----------------------------------|

CHORUS: (2:32)
(So I,_______________)
walk alone, I ask no quarter
[A5] [Bb5] [A5] [C5] [D5]  
 
 |----------------------------|---------------------------|
 |--------------15---13h15p13-|-12h13p12-10h12p10---5h6h8-|
 |----------------------------|---------------------------|
 |-2v~------------------------|---------------------------|
 |----------------------------|---------------------------|
 |----------------------------|---------------------------|
 |----------------------------|---------------------------| 

(I,__________________)
friend walk alone, till I find you
[A5] [Bb5] [A5] [C5] [D5]  
 
 |-------------------------|----------------------|
 |-6-6---5-5---3-3---5-6-6-|------/13-13---15-----|
 |-------------------------|-2v~------------------|
 |-------------------------|----------------------|
 |-------------------------|----------------------|
 |-------------------------|----------------------|
 |-------------------------|----------------------|

(2:48)
(So I,_______________)
again walk alone, I ask no quarter
[A5] [Bb5] [A5] [C5] [D5]  
 
 |-19------19---19---20------20-|-19-17-15-13-12-12b--------|
 |----17-17---17---17---17-17---|---------------------------|
 |------------------------------|---------------------------|
 |------------------------------|---------------------------|
 |------------------------------|---------------------------|
 |------------------------------|---------------------------|
 |------------------------------|---------------------------| 

(I,__________________)
friend walk alone, till I find you
[A5] [Bb5] [A5] [C5] [D5]  
 
 |-------------------------------|-------------------------|
 |-15v~-12h13p12-12-13-12---15v~-|-5---6---5-5-6-6/7\6-5h6-|
 |-------------------------------|-------------------------|
 |-------------------------------|-------------------------|
 |-------------------------------|-------------------------|
 |-------------------------------|-------------------------|
 |-------------------------------|-------------------------|

(3:04)
again, till I find you
[(A5)]  
 
 |---------------------------------|----------------------------------|
 |---------------------------------|----------------------------------|
 |---------------------------------|----------------------------------|
 |---------------------------------|----------------------------------|
 |---------------------------------|----------------------------------|
 |---------------------------------|----------------------------------|
 |-0-/12--10---7---8---7---5---3---|--0-/12--10---7---8---7---5---3---|

|
|
 
 |---------------------------------|----------------------------------|
 |----10---8---5---6---5---3---1---|-----10---8---5---6---3---1---3---|
 |---------------------------------|--------------------------------2-|
 |---------------------------------|----------------------------------|
 |---------------------------------|----------------------------------|
 |---------------------------------|----------------------------------|
 |---------------------------------|----------------------------------| 

again, till I find you
[(A5)]  
 
 |---------------------------------|----------------------------------|
 |---------------------------------|----------------------------------|
 |---------------------------------|----------------------------------|
 |---------------------------------|----------------------------------|
 |---------------------------------|----------------------------------|
 |---------------------------------|----------------------------------|
 |-0-/12--10---7---8---7---5---3---|--0-/12--10---7---8---7---5---3---|

|
|
 
 |---------------------------------|----------------------------------|
 |----10---8---6---5---6---5---3p1-|-----10---8---6---5---6---5---3---|
 |---------------------------------|--------------------------------2-|
 |---------------------------------|----------------------------------|
 |---------------------------------|----------------------------------|
 |---------------------------------|----------------------------------|
 |---------------------------------|----------------------------------|

OUTRO:(3:20)
again,
[A5]  
 
 |---------------------------------|----------------------------------|
 |---------------------------------|----------------------------------|
 |---------------------------------|----------------------------------|
 |---------------------------------|----------------------------------|
 |-0-------------------------------|----------------------------------|
 |-0-------------------------------|----------------------------------|
 |-0-------------------------------|----------------------------------|

| Hold
|
 
 |---------------------------------|----------------------------------|
 |---------------------------------|----------------------------------|
 |---------------------------------|----------------------------------|
 |---------------------------------|----------------------------------|
 |-7-6-5\3---5-5-(5)p3-5-3---------|----------------------------------|
 |---------------------------5-3-5-|-(5)\-----------------------------|
 |---------------------------------|----------------------------------|


Important: The song above is NOT stored on the Chordie server. The original song is hosted at www.guitartabs.cc. Chordie works as a search engine and provides on-the-fly formatting. Chordie does not index songs against artists'/composers' will. To remove this song please click here.

Text color:
Chord color:
Chord grids: 
Font size:    
Page size: 

A5 Bb5 C5 D5 Eb5 G5
Rate #2 of 5 versions

Jango Player

Login - add to songbook

SHARE PAGE  




You need to log in to post comments