Guitar Tabs, Chords and Lyrics
Major upgrade!! After one year development the new version of Chordie is now online! Please give feedback.


Feel the Rage  Galactic Cowboys

 
 -------------------------------------------------------------------------------

FEEL THE RAGE - Galactic Cowboys
 
 -------------------------------------------------------------------------------

Tabbed By : Isaias Garcia
Tuning: Drop D
H Q E E E E Q E E E E E E E E E E E E
 
 G||----------------------|-------------------------|--------------------------|
 D||----------------------|-------------------------|--------------------------|
 A||-------------------1--|--L--1--3-------------5--|--L-----------------------|
 D||----------------------|-------------3--2--0-----|-----3--2--0--3--5--3--0--|

E E Q E E E E E E E E E E E E E E Q E E E E
 
 -------------------------|--------------------------|-------------------------|
 -------------------------|--------------------------|-------------------------|
 --1--1--3-------------5--|--L-----------------------|--1--1--3-------------5--|
 -------------3--2--0-----|-----3--2--0--3--5--3--0--|-------------3--2--0-----|

E E E E E E E E E E Q E E E E E E E E E E E E W
 
 --------------------------|-------------------------|--------------------------|----------------|
 --------------------------|-------------------------|--------------------------|----------------|
 --L-----------------------|--1--1--3-------------5--|--L-----------------------|----------------|
 -----3--2--0--3--5--3--0--|-------------3--2--0-----|-----3--2--0--3--5--3--0--|----------------|

W W H Q E E E E E E E E E E
 
 -------------------|-------------------|----------------------|--------------------------|
 -------------------|-------------------|----------------------|--------------------------|
 -------------------|-------------------|----------------------|--------------------------|
 -------------------|-------------------|-------------------3--|--L--3--3--3--3--3--3--5--|

[E] [E] [E] [E] [E] [E] [E] [E] [E] [E] [E] [E] [E] [E] [E] [E] [E] [E] [E] [E] [E] [E] [E] [E]  
 
 --------------------------|--------------------------|--------------------------|
 --------------------------|--------------------------|--------------------------|
 --------------------------|--3--3--3--3--3--3--3--3--|--3--3--3--3--3--3--3--3--|
 --L--5--5--5--5--5--5--0--|--------------------------|--------------------------|

[E] [E] [E] [E] [E] [E] [E] [E] [E] [E] [E] [E] [E] [E] [E] [E] [E] [E] [E] [E] [E] [E] [E] [E]  
 
 --------------------------|--------------------------|--------------------------|
 --------------------------|--------------------------|--------------------------|
 --3--3--3--3--3--3--3--3--|--3--3--3--3--5--3--0-----|--------------------------|
 --------------------------|-----------------------3--|--L--3--3--3--3--3--3--5--|

E E E E E E E E E E E E E E E E E E E E E E Q
 
 --------------------------|--------------------------|---------------------------|
 --------------------------|--------------------------|---------------------------|
 --------------------------|--------------------------|---------------------------|
 --L--5--5--5--5--5--5--3--|--L--3--3--3--3--3--3--5--|--L--5--5--5--5--5--12\----|

E E E E E E Q E E E E E E E E E E Q E E E E
 
 -------------------------|--------------------------|-------------------------|
 -------------------------|--------------------------|-------------------------|
 -------------------------|-----------------------3--|--L--3-------3--3--3--5--|
 --1--1--1--1--1--1--1----|--3--3--3--3--3--3--1-----|--------5----------------|

[E] [E] [E] [E] [E] [E] [E] [E] [E] [E] [E] [E] [E] [E] [E] [E] [E] [E] [E] [E] [E] [E] [E] [E]  
 
 --------------------------|--------------------------|--------------------------|
 --------------------------|--------------------------|--------------------------|
 --L--5--5--5--5--6--5--1--|--------------------------|--------------------------|
 --------------------------|--1--1--1--1--1--1--1--1--|--3--3--3--3--3--3--3--1--|

E E Q E E E E E E E E E E E E E E E E E E E E
 
 -------------------------|--------------------------|--------------------------|
 -------------------------|--------------------------|--------------------------|
 --3--3-------3--3--3--5--|--L--5--5--5--5--6--5--1--|--------------------------|
 --------5----------------|--------------------------|--1--1--1--1--1--1--1--1--|

E E E E E E E E E E Q E E E E E E E E E E E E
 
 --------------------------|-------------------------|--------------------------|
 --------------------------|-------------------------|--------------------------|
 -----------------------1--|--L--1--3-------------5--|--L-----------------------|
 --3--3--3--3--3--3--3-----|-------------3--2--0-----|-----3--2--0--3--5--3--0--|

E E Q E E E E E E E E E E E E E E E E E E E E
 
 -------------------------|--------------------------|--------------------------|
 -------------------------|--------------------------|--------------------------|
 --1--1--3-------------5--|--L-----------------------|--3--3--3--3--3--3--3--3--|
 -------------3--2--0-----|-----3--2--0--3--5--3--0--|--------------------------|

E E E E E E E E E E E E E E E E E E E E Q E E
 
 --------------------------|----------------------------|--------------------------------|
 --------------------------|----------------------------|------------------12-----L\-----|
 --3--3--3--3--3--3--3--3--|--3--3--3--3--3--3--3s--10--|------10------10---x------------|
 --------------------------|----------------------------|--10------10-------x---------3--|

[E] [E] [E] [E] [E] [E] [E] [E] [E] [E] [E] [E] [E] [E] [E] [E] [E] [E] [E] [E] [E] [E] [E] [E]  
 
 --------------------------|--------------------------|--------------------------|
 --------------------------|--------------------------|--------------------------|
 --------------------------|--------------------------|--3--3--3--3--3--3--3--3--|
 --L--3--3--3--3--3--3--5--|--L--5--5--5--5--5--5--5--|--------------------------|

[E] [E] [E] [E] [E] [E] [E] [E] [E] [E] [E] [E] [E] [E] [E] [E] [E] [E] [E] [E] [E] [E] [E] [E]  
 
 --------------------------|--------------------------|--------------------------|
 --------------------------|--------------------------|--5--4--3--2--------------|
 --3--3--3--3--3--3--3--3--|--3--3--3--3--3--3--3--3--|--------------5--4--3-----|
 --------------------------|--------------------------|-----------------------3--|

[E] [E] [E] [E] [E] [E] [E] [E] [E] [E] [E] [E] [E] [E] [E] [E] [E] [E] [E] [E] [E] [E] [E] [E]  
 
 --------------------------|--------------------------|--------------------------|
 --------------------------|--------------------------|--------------------------|
 --------------------------|--------------------------|--------------------------|
 --L--3--3--3--3--3--3--5--|--L--5--5--5--5--5--5--3--|--L--3--3--3--3--3--3--5--|

E E E E E E E E E E Q E E E E E E E E E E E E
 
 --------------------------|-------------------------|--------------------------|
 --------------------------|--------1----------------|--------------------------|
 --------------------------|-------------------------|-----------------------3--|
 --L--5--5--5--5--5--5--0--|--1--1-------1--1--1--1--|--3--3--3--3--3--3--3-----|

E E Q E E E E E E E E E E E E E E Q E E E E
 
 -------------------------|--------------------------|-------------------------|
 -------------------------|--------------------------|-------------------------|
 --L--3-------3--3--3--5--|--L--5--5--5--5--6--5-----|-------------------------|
 --------5----------------|-----------------------0--|--1--1--1----1--1--1--1--|

E E E E E E E E E E Q E E E E E E E E E E E E
 
 --------------------------|-------------------------|--------------------------|
 --------------------------|-------------------------|--------------------------|
 -----------------------3--|--L--3-------3--3--3--5--|--L--5--5--5--5--6--5-----|
 --3--3--3--3--3--3--3-----|--------5----------------|-----------------------0--|

E E E E E E E E E E E E E E E E E E Q E E E E
 
 --------------------------|--------------------------|-------------------------|
 --------------------------|--------------------------|-------------------------|
 --------------------------|-----------------------1--|--L--1--3-------------5--|
 --1--1--1--1--1--1--1--1--|--3--3--3--3--3--3--3-----|-------------3--2--0-----|

E E E E E E E E E E Q E E E E E E E E E E E E
 
 --------------------------|-------------------------|--------------------------|
 --------------------------|-------------------------|--------------------------|
 --L-----------------------|--1--1--3-------------5--|--L-----------------------|
 -----3--2--0--3--5--3--0--|-------------3--2--0-----|-----3--2--0--3--5--3--0--|

E E Q E E E E E E E E E E E E E E Q E E E E
 
 -------------------------|--------------------------|-------------------------|
 -------------------------|--------------------------|-------------------------|
 --1--1--3-------------5--|--L-----------------------|--1--1--3-------------5--|
 -------------3--2--0-----|-----3--2--0--3--5--3--0--|-------------3--2--0-----|

[E] [E] [E] [E] [E] [E] [E] [E] [E] [E] [E] [E] [E] [E] [E] [E] [E] [E] [E] [E] [E] [E] [E] [E]  
 
 --------------------------|--------------------------|--------------------------|
 --------------------------|--5--5--5--5--5--5--5--5--|--5--5--5--5--5--5--5--5--|
 --L-----------------------|--------------------------|--------------------------|
 -----3--2--0--3--5--3--0--|--------------------------|--------------------------|

[E] [E] [E] [E] [E] [E] [E] [E] [E] [E] [E] [E] [E] [E] [E] [E] [E] [E] [E] [E] [E] [E] [E] [E]  
 
 --------------------------|--------------------------|--------------------------|
 --5--5--5--5--5--5--5--5--|--5--5--5--5--5--5--5--5--|--------------------------|
 --------------------------|--------------------------|--------------------------|
 --------------------------|--------------------------|--5--5--5--5--5--5--5--5--|

[E] [E] [E] [E] [E] [E] [E] [E] [E] [E] [E] [E] [E] [E] [E] [E] [E] [E] [E] [E] [E] [E] [E] [E]  
 
 --------------------------|--------------------------|--------------------------|
 --------------------------|--------------------------|--------------------------|
 --------------------------|--------------------------|--------------------------|
 --5--5--5--5--7--8--7--5--|--5--5--5--5--5--5--5--5--|--5--5--5--5--5--5--3--0--|

Half-time feel
E E E E E E E E E E E E E E Q E E E E E E E E
 
 -----------------------------------------|---------------------------|---------------------------|
 -----------------------------------------|---------------------------|---------------------------|
 -----------------------------------------|---------------------------|---------------------------|
 --L--------------0--0--0--8h--10p--8--0--|--L--0--0--0--8h--10--8----|--0--0--0--0--8h--10p--8--0|

E E E E E E Q E E E E E E E E E E E E E E Q
 
 ---------------------------|-----------------------------|---------------------------|
 ---------------------------|-----------------------------|---------------------------|
 ---------------------------|-----------------------------|---------------------------|
 --L--0--0--0--8h--10--8----|--0--0--0--0--8h--10p--8--0--|--L--0--0--0--8h--10--8----|

[E] [E] [E] [E] [E] [E] [E] [E] [E] [E] [E] [E] [E] [E] [E] [E] [E] [E] [E] [E] [E] [E] [E] [E]  
 
 -----------------------------|--------------------------|--------------------------|
 -----------------------------|--------------------------|--------------------------|
 -----------------------------|--------------------------|--------------------------|
 --0--0--0--0--8h--10p--8--0--|--L--0--0--0--0--0--0--0--|--1--1--1--1--1--1--1--1--|

E E E E E E E E E E Q E E E E E E E E E E E E
 
 --------------------------|-------------------------|--------------------------|
 --------------------------|-------------------------|--------------------------|
 -----------------------3--|--L--3-------3--3--3--5--|--L--5--5--5--5--6--5-----|
 --3--3--3--3--3--3--3-----|--------5----------------|-----------------------0--|

E E E E E E E E E E E E E E E E E E Q E E E E
 
 --------------------------|--------------------------|-------------------------|
 --------------------------|--------------------------|-------------------------|
 --------------------------|-----------------------3--|--L--3--3----3--3--3--5--|
 --1--1--1--1--1--1--1--1--|--3--3--3--3--3--3--3-----|-------------------------|

[E] [E] [E] [E] [E] [E] [E] [E] [E] [E] [E] [E] [E] [E] [E] [E] [E] [E] [E] [E] [E] [E] [E] [E]  
 
 --------------------------|--------------------------|--------------------------|
 --------------------------|--------------------------|--------------------------|
 --L--5--5--5--5--6--5-----|--------------------------|-----------------------1--|
 -----------------------0--|--1--1--1--1--1--1--1--1--|--3--3--3--3--3--3--3-----|

E E Q E E E E E E E E E E E E E E Q E E E E
 
 -------------------------|--------------------------|-------------------------|
 -------------------------|--------------------------|-------------------------|
 --L--1--3-------------5--|--L-----------------------|--1--1--3-------------5--|
 -------------3--2--0-----|-----3--2--0--3--5--3--0--|-------------3--2--0-----|

E E E E E E E E W W W
 
 --------------------------|-------------------|-------------------|-------------------|
 --------------------------|-------------------|-------------------|-------------------|
 --L-----------------------|-------------------|-------------------|-------------------|
 -----3--2--0--3--5--3--0--|-------------------|-------------------|-------------------|

W H Q E E E E E E E E E E E E E E E E
[E] [E]  
 
 -------------------|----------------------|--------------------------|--------------------------|
 -------------------|----------------------|--------------------------|--------------------------|
 -------------------|----------------------|--------------------------|--------------------------|
 -------------------|-------------------3--|--L--3--3--3--3--3--3--5--|--L--5--5--5--5--5--1--3--|

[E] [E] [E] [E] [E] [E] [E] [E] [E] [E] [E] [E] [E] [E] [E] [E] [E] [E] [E] [E] [E] [E] [E] [E]  
 
 --------------------------|--------------------------|--------------------------|
 --------------------------|--------------------------|--------------------------|
 --------------------------|--------------------------|--------------------------|
 --L--3--3--3--3--3--3--5--|--L--5--5--5--5--5--1--3--|--L--3--3--3--3--3--3--5--|

E E E E E E E E E E Q E E E E E E E E E E E E
 
 --------------------------|-------------------------|--------------------------|
 --------------------------|-------------------------|--------------------------|
 -----------------------1--|--L--1--3-------------5--|--L-----------------------|
 --L--5--5--5--5--5--3-----|-------------3--2--0-----|-----3--2--0--3--5--3--0--|

E E Q E E E E E E E E E E E E E E Q E E E E
 
 -------------------------|--------------------------|-------------------------|
 -------------------------|--------------------------|-------------------------|
 --1--1--3-------------5--|--L-----------------------|--1--1--3-------------1--|
 -------------3--2--0-----|-----3--2--0--3--5--3--0--|-------------3--2--0-----|

E E Q E E E E E E Q E E E E E E H. W
 
 -------------------------|-------------------------|---------------------|-------------------|
 -------------------------|-------------------------|---------------------|-------------------|
 --L--1--3----------------|--1--1--3-------------5--|-----3--L------------|--L----------------|
 -------------3--2--0--0--|-------------3--2--0-----|---------------------|-------------------|

W W W W
 
 -------------------|-------------------|-------------------|-------------------||
 -------------------|-------------------|-------------------|-------------------||
 --L----------------|--L----------------|--L----------------|--L----------------||
 -------------------|-------------------|-------------------|-------------------||

Duration Legend
 
 ---------------

W - whole
H - half
Q - quarter
E - 8th
S - 16th
T - 32nd
X - 64th
. - note dotted
|-n-| - n-tuplets
Tablature Legend
 
 ----------------

L - tied note
x - dead note
g - grace note
(n) - ghost note
> - accentuded note
NH - natural harmonic
AH - artificial harmonic
TH - tapped harmonic
SH - semi harmonic
PH - pitch harmonic
h - hammer on
p - pull off
b - bend
br - bendRelease
pb - preBend
pbr - preBendRelease
brb - bendReleaseBend
\n/ - tremolo bar dip
\n - tremolo bar dive
-/n - tremolo bar Release up
/n\ - tremolo bar inverted dip
/n - tremolo bar return
-\n - tremolo bar Release down
S - shift slide
s - legato slide
/ - slide into from below or out of upwards
\ - slide into from above or out of downwards
~ - vibrato
W - wide vibrato
tr - trill
TP - tremolo picking
T - tapping
S - slap
P - pop
< - fade in
^ - brush up
v - brush down

Important: The song above is NOT stored on the Chordie server. The original song is hosted at www.guitartabs.cc. Chordie works as a search engine and provides on-the-fly formatting. Chordie does not index songs against artists'/composers' will. To remove this song please click here.

Text color:
Chord color:
Chord grids: 
Font size:    
Page size: 

E
Rate #2 of 3 versions

Jango Player

Login - add to songbook

SHARE PAGE  




You need to log in to post comments