Guitar Tabs, Chords and Lyrics
Server problems seems to be fixed. Chordie has been experiencing problems with songs disappearing. These issues now seems to be fixed, but still verifying the fix. If you find anything strange, please email admin@chordie.com.


Wait  Get Set Go

 
 -------------------------------------------------------------------------------

Wait - Get Set Go
 
 -------------------------------------------------------------------------------

Tabbed by: Musial_Musician
Email: fender_bender101@hotmail.com
Tuning: Standard
Here's how to play the Gmaj and the Cmaj over most of the song (Hit the base with thumb,
bottom 3 strings with pointer, middle, and ring fingers):
Figure 1: G
[C]  
 
 e|------------1--------1-----------1--------------------0-------0--------0---------|
 B|------------0--------0-----------0--------------------1-------1--------1---------|
 G|------------0--------0-----------0--------------------0-------0--------0---------|
 D|---------------------------------------------------------------------------------|
 A|-------------------------------------------------3--------2--------0-------0-2-3-|
 E|------3---------2---------0------------0-2-3-------------------------------------|

When it gets to the ''Ooh.... He will be gone," play:
Figure 2: Em
[C]  
 
 e|------------------------------------------------------------------------------|
 B|---------0-------0-------0----------0--------0-------0--------0------0--------|
 G|-----------0-------0-------0----------0--------0-------0--------0------0------| X2
 D|------------------------------------------------------------------------------|
 A|-------------------------------------------------------------2------2---------|
 E|-------0-------0-------0----------0--------3-------3--------------------------|

[G]Wait, wait for the dawn my[C] dear
Wait till the sun [G]gets here
[C] [G] 
And you will [C]wait too long he will be gone
[G]Wait, wait till the sun s[C]hines through
Wait till the sky [G]is blue
And you will wait to[C]o long he will be gone, he will be gone[G]
___
Em G C |
Ooh, he will be gone |
|--- Figure 2
Em G C |
Ooh, he will be gone ___|
[G]Wait, wait till the signs[C] are right
Wait till the perf[G]ect time
And you will wait t[C]oo long he will be gone, he will be [G]gone[C]
___
Em G C |
Ooh, he will be gone |
|--- Figure 2
Em G C |
Ooh, he will be gone ___|
[G] [C] [G] [C] [G] [C]  
La la[G] la la la [C]...
[G]Wait, wait till you doubt [C]no more
Wait till you know[G] for sure
C G (End with just 1 stum, or 1 pluck)
And you will wait too long he will be gone
*Listen to the song for timing.*

Important: The song above is NOT stored on the Chordie server. The original song is hosted at www.guitartabs.cc. Chordie works as a search engine and provides on-the-fly formatting. Chordie does not index songs against artists'/composers' will. To remove this song please click here.

Text color:
Chord color:
Chord grids: 
Font size:    
Page size: 

C G
Rate #2 of 2 versions

Jango Player

Login - add to songbook

SHARE PAGE  



You need to log in to post comments