Guitar Tabs, Chords and Lyrics
Server problems seems to be fixed. Chordie has been experiencing problems with songs disappearing. These issues now seems to be fixed, but still verifying the fix. If you find anything strange, please email admin@chordie.com.


Don't Give Up on Me  Jason Aldean

Tabbed by:abbott764
Email:abbott764@gmail.com
Tuning:Capo on 1
up and down strokes
intro
 
 e|-0h2-2-2-2--0-0-0--3--3-3-3--2-2-2--0h2-2-2-2--0-0-0--3--3-3-3-3-3-|
 B|-3---3-3-3--2-2-2--0--0-0-0--3-3-3--3---3-3-3--2-2-2--0--0-0-0-0-0-|
 G|-2---2-2-2--2-2-2--0--0-0-0--2-2-2--2---2-2-2--2-2-2--0--0-0-0-0-0-|
 D|-0---0-0-0--2-2-2--0----------------0---0-0-0--2-2-2--0------------|
 A|-------------------0----------------------------------0------------|
 E|-------------------3----------------------------------3------------|

[D]I don't go to chu[A]rch enough
[G]I curse out loud I[D] drink too much
I'm [D]more of a sin[A]ner than a sai[G]nt
Got a d[D]usty bible o[A]n my shelf
I just pi[G]ck it up when [D]I need help
Lord [D]knows there's a l[A]ot I need to ch[G]ange
And I w[A]ant to. Baby you make me want to
Chorus
[G]You tie the k[D]not wh[A]en I'm at the end of my rope,[G]
You never s[D]top bel[A]ievin' in me when I don't know[G]
Who I [D]am or what [A]I'm supposed to b[Bm]e
I don't gi[G]ve you no good reasons
Bu[A]t baby don't give up on m[D]e
(Play intro between verses)
[D]I've smoked my l[A]ast cigarette
[G]At least a hundred [D]times I bet
I [D]guess I'll just [A]keep quittin' 'til [G]it sticks
But [D]for all the things [A]I've failed to do
I've [G]never failed at [D]loving you
We [D]both know I can't [A]grant your every [G]wish
But I w[A]ant to. Baby you make me want to
Chorus
[G]You tie the k[D]not wh[A]en I'm at the end of my rope[G]
You never s[D]top bel[A]ievin' in me when I don't know[G]
Who I [D]am or what [A]I'm supposed to be[Bm]
I don't gi[G]ve you no good reasons
Bu[A]t baby don't give up on m[G]e
solo ^^^^
 
 e|------------------------------------------------------|
 B|-10--8-10-7-8-----------------------------------------|
 G|--------------7-6-7/9---------------------------------|
 D|----------------------7-5-7-------------7-0h4-5/7-----|
 A|----------------------------7\5-5(6)--------------5-7-|
 E|------------------------------------------------------|
 e|---------------------------------|
 B|-------------7-7-5---------------|
 G|---------6-7-7-7---7-----7-pb9r7-|
 D|-----5-7-----7-7-----7-9---------|
 A|-5-7-----------------------------|
 E|---------------------------------|

[G]You tie the k[D]not wh[A]en I'm at the end of my rope[G]
You never s[D]top bel[A]ievin' in me when I don't know[G]
Who I [D]am or what [A]I'm supposed to b[Bm]e
I don't gi[G]ve you no good reasons
Bu[A]t baby don't give up on m[D]e
Let Ring.....
 
 e|-0h2-2-2-2--0-0-0--3--3-3-3--2-2-2--0h2-2-2-2--0-0-0--3-|
 B|-3---3-3-3--2-2-2--0--0-0-0--3-3-3--3---3-3-3--2-2-2--0-|
 G|-2---2-2-2--2-2-2--0--0-0-0--2-2-2--2---2-2-2--2-2-2--0-|
 D|-0---0-0-0--2-2-2--0----------------0---0-0-0--2-2-2--0-|
 A|-------------------0----------------------------------0-|
 E|-------------------3----------------------------------3-|

************************************
| / slide up
| \ slide down
| h hammer-on
| p pull-off
| ~ vibrato
| + harmonic
| x Mute note
| b Bend
| pb Pre-bend
| br Bend release
| pbr Pre-bend release
| brb Bend release bend
************************************

Important: The song above is NOT stored on the Chordie server. The original song is hosted at www.guitartabs.cc. Chordie works as a search engine and provides on-the-fly formatting. Chordie does not index songs against artists'/composers' will. To remove this song please click here.

Text color:
Chord color:
Chord grids: 
Font size:    
Page size: 

A Bm D G
Rate #1 of 6 versions

Login - add to songbook

SHARE PAGE  



You need to log in to post comments