Guitar Tabs, Chords and Lyrics
Server problems seems to be fixed. Chordie has been experiencing problems with songs disappearing. These issues now seems to be fixed, but still verifying the fix. If you find anything strange, please email admin@chordie.com.


Just Passing Through  Jason Aldean

A little bit of distortion for this song wouldnt hurt ;)
The riff and solo seem to branch off from the intro. sounds pretty cool though...
of course it would, its a Jason Aldean song lol
The intro can also be played on the G string the same way,
just starting on the second fret. If you'd rather play it that way, go for it . Have fun everybody
 
 Chords-D---A---Bm---G---G/F#-|
 E|-----2---x----2---3---3----|
 B|-----3---2----3---3---3----|
 G|-----2---2----4---0---0----|
 D|-----0---2----4---0---0----|
 A|-----x---0----2---2---0----|
 E|-----x---x----x---3---2----|

 
 E|------------------------------------------------------|
 B|------------------------------------------------------|
 G|------------------------------------------------------|
 D|-7h9/11-11p9\7/9-11-11-9\7--7h9/11-11p9\7/9-12-11-9\7-|x2
 A|------------------------------------------------------|
 E|------------------------------------------------------|

Palm mute all the chords for the first verse.
[D]I can hear that rooster crowing down the road
[A]I felt my eyes open up real slow
[Bm]and I looked around
[G]making sure I hadnt checked out
[D]cause there was an angel lying next to me
[A]and I figured heavens where I must be
[Bm]oh but it was you
[G]baby what else could I do[G] [G/F#]
[Bm]in that bed I said a little prayer
[G]for one more day [A]I'm still here
[D]It's your world and I'm just in it
[A]Aint no other way to spin it,
[Bm]Lucky me just being there when I get to ho[G]ld you
[Bm]I'm just here to love you girl
[A]It's your world and I'm just passing through
D, A, Bm, G (2 beats per chord)
 
 E|------------------------------------------------------|
 B|------------------------------------------------------|
 G|------------------------------------------------------|
 D|-7h9/11-11p9\7/9-11-11-9\7--7h9/11-11p9\7/9-12-11-9\7-|
 A|------------------------------------------------------|
 E|------------------------------------------------------|

[D]I dig in my heels and try to slow this down
[A]I want my life to revolve around [Bm]everything you do
[G]Oh but that's all up to you
[D]Everything good seems to go so fast
[A]it's kinda like one big party crash
[Bm]you weren't counting on
[G]one day your here you're gone[G] [G/F#]
[Bm]baby all I wanna do is lay right here
[G]and hope it all don't [A]disappear
[D]It's your world and I'm just in it
[A]Aint no other way to spin it,
[Bm]Lucky me just being there when I get to ho[G]ld you
[Bm]I'm just here to love you girl
[A]It's your world and I'm just passing through
Solo (or play D A Bm G for a full measure each this time)
 
 E|---------------------------------------------------------------------------|
 B|--------------------------7h8b(10)---10-10p8-------------------------------|
 G|------------7h9b(11)---7h9------------------9--7vv-7p6--9p7-7\6-6\4-4/6\4v-|
 D|---------7h9------------------------------------------9--------------------|
 A|-5h7p5h7-------------------------------------------------------------------|
 E|---------------------------------------------------------------------------|

[D]It's your world and I'm just in it
[A]Aint no other way to spin it,
[Bm]Lucky me just being there when I get to ho[G]ld you
[Bm]I'm just here to love you girl
[A]It's your world and I'm just passing through
Riff
 
 E|-------------------------|
 B|-------------------------|
 G|-------------11-9--------|
 D|-7h9/11-11p9-------11-7v-|
 A|-------------------------|
 E|-------------------------|

[Bm]I'm just here to love you girl
[A]It's your world and I'm just passing through
Replay intro (same chord progression as before)
 
 E|------------------------------------------------------|
 B|------------------------------------------------------|
 G|------------------------------------------------------|
 D|-7h9/11-11p9\7/9-11-11-9\7--7h9/11-11p9\7/9-12-11-9\7-|x2
 A|------------------------------------------------------|
 E|------------------------------------------------------|


Important: The song above is NOT stored on the Chordie server. The original song is hosted at www.guitartabs.cc. Chordie works as a search engine and provides on-the-fly formatting. Chordie does not index songs against artists'/composers' will. To remove this song please click here.

Text color:
Chord color:
Chord grids: 
Font size:    
Page size: 

A Bm D G G/F#
Rate #0 of 8 versions

Login - add to songbook

SHARE PAGE  



You need to log in to post comments