Guitar Tabs, Chords and Lyrics
Server problems seems to be fixed. Chordie has been experiencing problems with songs disappearing. These issues now seems to be fixed, but still verifying the fix. If you find anything strange, please email admin@chordie.com.


Why  Jason Aldean

 
 -------------------------------------------------------------------------------

WHY - Jason Aldean
 
 -------------------------------------------------------------------------------

Tabbed by: zach butts
Email: zachbutts99@yahoo.com
Tuning: EADGBE (capo on the 2nd fret)
INTRO :
 
 e|-----------------------------------------------------3----------------------|
 B|-----------------------------------------------------0----------------------|
 G|---2h4--2--4h5p4---2h4--2--4h5p4p0---2h4--2--4h5p4---0----------------------|
 D|-----------------------------------------------------0----------------------|
 A|-----------------------------------------------------2----------------------|
 E|-----------------------------------------------------3----------------------|

VERSE 1:
It's 3 A[G]M and I finally say
I'm s[Em]orry for acting that way
I didn't really me[G]an to make you cry
Oh [Em]baby, sometimes I wonder why
CHORUS :
Does it alwa[G]ys have to come down
To you le[D]aving
Before I'll say 'I l[Am]ove you'[C]
Why do I a[G]lways use the words
That cut the deepe[D]st
When I know how much it hu[Am]rts you
Oh [G]baby [C]why, do I do that to y[G]ou
BRIDGE:
 
 e|---------------------------------------------------------------------------|
 B|---------------------------------------------------------------------------|
 G|---2h4--2--4h5p4---2h4--2--4h5p4-------------------------------------------|
 D|---------------------------------------------------------------------------|
 A|---------------------------------------------------------------------------|
 E|---------------------------------------------------------------------------|

VERSE 2:
I know I'd n[G]ever let you walk away
So w[Em]hy do I push you 'til you break
And why are you a[G]lways on the verge of good-bye
Before I'll[Em] show you how I really feel inside
CHORUS:
Does it a[G]lways have to come down
To you leavi[D]ng
Before I'll say 'I lo[Am]ve you'[C]
Why do I a[G]lways use the words
That cut the dee[D]pest
When I know how much it hu[Am]rts you
Oh b[G]aby w[C]hy, do I do that to y[G]ou
SOLO:
 
 e|---------------------------------------------------------------------------|
 B|---------------------------------------------------------------------------|
 G|----------9h11p9--------14-13-13h14--14-13-13h14---------------------------|
 D|---11~11----------11~9---------------------------14p12p11\0----------------|
 A|---------------------------------------------------------------------------|
 E|---------------------------------------------------------------------------|

CHORUS 3:
Why do I a[G]lways use the words that cut the de[D]epest
When I know how much it h[Am]urts you
Oh b[G]aby w[C]hy, do I do that to y[G]ou[-] [D]
Why do I do that to y[Am]ou
***then at the end play the same chords as the chorus but a lot softer and less
twice and the song fades out if u hav any questions email me at zachbutts99@yahoo.com
| / slide up
| \ slide down
| h hammer-on
| p pull-off
| ~ vibrato
| + harmonic
| x Mute note
===============================================================================

Important: The song above is NOT stored on the Chordie server. The original song is hosted at www.guitartabs.cc. Chordie works as a search engine and provides on-the-fly formatting. Chordie does not index songs against artists'/composers' will. To remove this song please click here.

Text color:
Chord color:
Chord grids: 
Font size:    
Page size: 

Am C D Em G
Rate #1 of 7 versions

Jango Player

Login - add to songbook

SHARE PAGE  




You need to log in to post comments