Guitar Tabs, Chords and Lyrics
Server problems seems to be fixed. Chordie has been experiencing problems with songs disappearing. These issues now seems to be fixed, but still verifying the fix. If you find anything strange, please email admin@chordie.com.


Natural Disaster  Joel Plaskett

In drop D, G is played Em is
3 0
3 0
0 0
0 2
[5] [2]  
[5] [2]  
INTRO: Acoustic/Clean
 
 e|---------------------------------------------------------------------------|
 B|-----3h5-3-----------------------------------------------------------------|
 G|-----------2h4-2---0------------------------------x2-----------------------|
 D|--0------------------4--0-2-2h4-2-0-0h2------------------------------------|
 A|---------------------0--0-0-0---0-0-0--------------------------------------|
 D|-0-------------------0-----------------------------------------------------|

MAIN RIFF: Heavy Distortion
 
 e|---------------------------------------------------------------------------|
 B|---------------------------------------------------------------------------|
 G|-----------------------------------------------x2--------------------------|
 D|---------12-12-9-7--7-4-2-2h4-2-0-2--5-------------------------------------|
 A|---------10-9--7-5--5-2-0-0---0-0-2--5-------------------------------------|
 D|----0-0---------------------------2--5-------------------------------------|

VERSE 1: Lotys of Palm Muting
The [D]air was getting [Bm]heavy, I [G]knew that it was [A]coming
So I started up the Chevy to keep the motor runnin
A storm came down upon us, and flooded all the rivers
Surrounded by pirahnas and the doctors who deliver
FILL 1:
 
 e|-----------------------
 B|-----------------------
 G|-----------------------
 D|------0-2-0------------
 A|--0h2-------2-0--------
 D|----------------5------

PRECHORUS:
G G/F# Em Fill 1
Anything that you require
[G]Now the [G/F#]fields are all on [Em]fire[Em] [G]
CHORUS
[D]La de da de [A]da de da, [Bm]battin down the [G]hatches Becky,
[D]Open up the [A]earth and sky, [Bm]waitin on a [G]natural disaster
[D]Sittin out on [A]my front porch, [Bm]Watchin stone clouds [G]movin faster
[D] [Dsus4] [D] [Dsus2] [D] [A] Like a natural [G]Disaster [Em] [G]
PLAY MAIN RIFF TWICE
VERSE 2: Same as Verse 1
Flood came between us, I Saw it on the tv
I went down to Pheonix to write my last cd
PRECHORUS:
And nobody's got pain
Just like the good old days, you can waste your life away
CHORUS
PLAY MAIN RIFF TWICE
GUITAR BREAK:
 
 e|---------------------------------------------------------------------------|
 B|---------------------------------------------------------------------------|
 G|--11-11-11-----------------------------------------------------------------|
 D|-----------11---11-12-14---------------------------------------------------|
 A|--------------12---------12--9-7-7s9---------------------------------------|
 D|---------------------------------------------------------------------------|

FILL 2:
 
 e|-------------------------------
 B|-------------------------------
 G|-------------------------------
 D|-----0-2s4-2s4-2s4-------------
 A|-0h2---------------------------
 E|-------------------------------

VERSE 3:Same as verse 1 EXCEPT after "Headed down the coast" play fill 2
I left NOVA SCOTIA, and headed down the coast
Tore a strip off Memphis, before i levelled Roanoake
I punished Pickles county, And headed for Las Crusades
Anyone Around Me will be covered in my bruises
PRECHORUS:
You want somethin to rememeber Me By
You can write my name in the sky, and sing la de da
CHORUS: Repeat last line once
MAIN RIFF x 4
OUTRO: Same as guitar break

Important: The song above is NOT stored on the Chordie server. The original song is hosted at www.guitartabs.cc. Chordie works as a search engine and provides on-the-fly formatting. Chordie does not index songs against artists'/composers' will. To remove this song please click here.

Text color:
Chord color:
Chord grids: 
Font size:    
Page size: 

A Bm D Dsus2 Dsus4 Em G G/F#
Rate #1 of 6 versions

Login - add to songbook

SHARE PAGE  




You need to log in to post comments