Guitar Tabs, Chords and Lyrics
Major upgrade!! After one year development the new version of Chordie is now online! Please give feedback.


No Such Thing  John Mayer

 
 -------------------------------------------------------------------------------

No Such Thing - John Mayer
 
 -------------------------------------------------------------------------------

Tabbed By : Dru
Notes: This is not an exact transcription. It is my version, but IT WILL WORK
PERFECT!!
 
 Intro: rest for 7 bars then: G|----------------|----------------||
 D|------------9/--|14--------------||
 A|----------------|----------------||
 E|----------------|----------------||

Verse 1:
[E] [A] [C#-]  
 
 G|----------------|2-2-2-2-2-2-----|2-2-2-2-2-2-----|----------------|
 D|2-2-2-2-2-2-2-4-|------------2-4-|------------4-2-|----------------|
 A|----------------|----------------|----------------|4-4-4-4-4-2---2-|
 E|----------------|----------------|----------------|------------4---|

[E/G]  
 
 G|----------------|----------------|----------------||
 D|----------------|----------------|----------------||
 A|4-4-4-4-4-2-----|----------------|----------------||
 E|------------4---|0---0---0---0---|3---3---0---0---||

[E] [A]  
 
 G|----------------|----------------|----------------|----------------|
 D|----------------|----------------|----------2-4-2-|----------2-4-2-|
 A|----------2-4-2-|----------2-4-2-|0-0---0-4-------|0-0---0-4-------|
 E|0-0---0-4-------|0-0---0-4-------|----------------|----------------|

[C#-] [F#] [C#] [F#-]  
 
 G|----------------|----------------|----------------|----------------||
 D|----------------|----------------|------------4---|4---------------||
 A|4-4-4-4-4-2---2-|4-4-4-4-4-2-----|------4---------|----------------||
 E|------------4---|------------4---|2---------------|----------------||

[A]  
 
 G|----------------|----------------|----------------|----------------|
 D|----------------|----------------|----------------|----------------|
 A|0-0-0-0-0-0-0-0-|0-0-0-0-0-0-0-0-|0-0-0-0-0-0-0-0-|0-0-0-0-4-2-----|
 E|----------------|----------------|----------------|------------4-2-|

[E] [F#]  
 
 G|----------------|----------------|----------------|----------------|
 D|----------------|----------------|4-4-4-4-4-2---2-|4-4-4-4-4-2-----|
 A|----------------|------------2-4-|------------4---|------------4-2-|
 E|0-0-0-0-0-0-0-0-|0-0-0-0-2-4-----|----------------|----------------|

[A] [E]  
 
 G|----------------|----------------|----------------|----------------||
 D|----------------|--------------4-|2-------------2-|--drum fill-----||
 A|0-0-0-0-0-0-0-0-|0-0-0-0-0-2-4---|--------2---4---|--this bar------||
 E|----------------|----------------|----4-----------|----------------||

Chorus:
[A] [E] [A] [E]  
 
 G|----------------|----------------|----------------|----------------|
 D|------------2---|----------------|------------2---|----------------|
 A|0---0---2-4-----|------------2---|0---0---2-4-----|------------2---|
 E|----------------|0---0---2-4-----|----------------|0---0---2-4-----|

[A] [E] [A] [E]  
 
 G|----------------|----------------|----------------|----------------||
 D|------------2---|----------------|------------4---|2---------------||
 A|0---0---2-4-----|------------2---|0---0---2-4-----|----------------||
 E|----------------|0---0---2-4-----|----------------|----------------||

Verse 2:
[E] [A]  
 
 G|----------------|----------------|----------------|----------------|
 D|----------------|----------------|----------2-4-2-|----------2-4-2-|
 A|----------2-4-2-|----------2-4-2-|0-0---0-4-------|0-0---0-4-------|
 E|0-0---0-4-------|0-0---0-4-------|----------------|----------------|

[C#] [E/G]  
 
 G|----------------|----------------|----------------|----------------||
 D|----------------|----------------|----------------|----------------||
 A|4-4-4-4-4-2---2-|4-4-4-4-4-2-----|----------------|----------------||
 E|------------4---|------------4---|0---0---0---0---|3---3---0---0---||

[E] [A]  
 
 G|----------------|----------------|----------------|----------------|
 D|----------------|----------------|----------2-4-2-|----------2-4-2-|
 A|----------2-4-2-|----------2-4-2-|0-0---0-4-------|0-0---0-4-------|
 E|0-0---0-4-------|0-0---0-4-------|----------------|----------------|

[C#-] [F#] [C#] [F#-]  
 
 G|----------------|----------------|----------------|----------------||
 D|----------------|----------------|------------4---|4---------------||
 A|4-4-4-4-4-2---2-|4-4-4-4-4-2-----|------4---------|----------------||
 E|------------4---|------------4---|2---------------|----------------||

A (****)
 
 G|----------------|----------------|----------------|----------------|
 D|----------------|----------------|----------------|----------------|
 A|0-0-0-0-0-0-0-0-|0-0-0-0-0-0-0-0-|0-0-0-0-0-0-0-0-|0-0-0-0-4-2-----|
 E|----------------|----------------|----------------|------------4-2-|

[E] [F#]  
 
 G|----------------|----------------|----------------|----------------|
 D|----------------|----------------|4-4-4-4-4-2---2-|4-4-4-4-4-2-----|
 A|----------------|------------2-4-|------------4---|------------4-2-|
 E|0-0-0-0-0-0-0-0-|0-0-0-0-2-4-----|----------------|----------------|

A E (Skip these 2 bars last time)
 
 G|----------------|----------------|----------------|----------------||
 D|----------------|--------------4-|2-------------2-|--drum fill-----||
 A|0-0-0-0-0-0-0-0-|0-0-0-0-0-2-4---|--------2---4---|--this bar------||
 E|----------------|----------------|----4-----------|----------------||

Chorus 2: Repeat Chorus
Bridge:
[F] [A] [F]  
 
 G|----------------|----------------|----------------|~---------------|
 D|3-------3h5-2---|3-------3h5-2---|2-------2h5-2---|3-------3h5-2---|
 A|----------------|----------------|----------------|----------------|
 E|----------------|----------------|----------------|----------------|

[A] [F] [A] [F]  
 
 G|----------------|~---------------|----------------|~---------------|
 D|2-------2h5-2---|3-------3h5-2---|2-------2h5-2---|3-------3h5-2---|
 A|----------------|----------------|----------------|----------------|
 E|----------------|----------------|----------------|----------------|

[A] [G]  
 
 G|----------------|----------------|----------------|| repeat back to
 D|2-------2h5-2---|5---------------|----------------|| (****) and play
 A|----------------|----------------|----------------|| out w/a double
 E|----------------|----------------|3---3---3-3-3-3-|| chorus.

| / slide up
| h hammer-on
| ~ vibrato
===============================================================================

Important: The song above is NOT stored on the Chordie server. The original song is hosted at www.guitartabs.cc. Chordie works as a search engine and provides on-the-fly formatting. Chordie does not index songs against artists'/composers' will. To remove this song please click here.

Text color:
Chord color:
Chord grids: 
Font size:    
Page size: 

A C# E E/G F F# G
Rate #2 of 13 versions

Jango Player

Login - add to songbook

SHARE PAGE  



You need to log in to post comments