Guitar Tabs, Chords and Lyrics
Server problems seems to be fixed. Chordie has been experiencing problems with songs disappearing. These issues now seems to be fixed, but still verifying the fix. If you find anything strange, please email admin@chordie.com.


Waitin' on the Day  John Mayer

 
 --------------------------------------------------------------------------

Waiting on the Day - John Mayer
 
 --------------------------------------------------------------------------

Tabbed by: Rocio
Tuning: Standard
***********************Chords + Tab**********************
Intro & Verse:
[D] [G] [D]  
 
 e|-----0h2--2---0h2-0h2----0h2--7--7p5---2--------|
 B|-----3----3---3---3------3----5--5-----3--------|
 G|-----2----2---2---2------2----0--0-----2--------|
 D|------------------------------------------------|
 A|------------------------------------------------|
 E|------------------------------------------------|

[D] [G] [D] [A]  
 
 e|-----0h2---7--7p5---2----5----0--0--|
 B|-----3-----5--5-----3----3----2--3--|
 G|-----2-----0--0-----2----2----2--2--|
 D|------------------------------2--2--|
 A|------------------------------0--0--|
 E|-----------------------------------0|

Chorus:
*He changes the way of playing each chord every chorus, but generally:
Bm7 (x24232)
D (x577xx)or(x00230)or(x00232)
G (3x0035)>(3x0032)or just(3x5433) (You can spice up the G chord a bit as you like)
[Bm7] [D] [G]  
 
 e|-----2----------5--2--------|
 B|-----3----------3--3--------|
 G|-----2-----7----0--0--------|
 D|-----4-----7----0--0--------|
 A|-----2-----5----x--x--------|
 E|----------------3--3--------|

Bridge:
[D] [D/F#] [G] [D]  
 
 e|----0----------------0---------|
 B|----3-----3----3-----3---------|
 G|----2-----2----0-----2---------|
 D|----------0----0---------------|
 A|----------x----x---------------|
 E|----------2----3---------------|

Ending:
[D] [Cadd9] [G] [D]  
 
 e|----0---------------0---------|
 B|----3-----3---3-----3---------|
 G|----2-----0---0-----2---------|
 D|----------0---0---------------|
 A|----------3---2---------------|
 E|--------------3---------------|

********************Lyrics + Chords********************
[D]Waiting on the day when my t[G]houghts are my [D]own
When this h[G]ouse is my [D]home
And plans are [A]mad[Bm7]e
When you [D]be there for me,[G] baby[Bm7]
When you [D]love me all the w[G]ay[Bm7]
When you [D]take my side in e[G]very little fire fight[Bm7]
When you [D]hang your things and s[G]tay
Wa[D]iting on the day when my li[G]fe on the r[D]un
Bleaches [G]out in the s[D]un and shows my [A]age
Wa[D]iting on the day when that v[G]oice comes to [D]say
That it's not w[G]rong what you [D]did for just a k[A]id[Bm7]
When you [D]be there for me,[G] baby[Bm7]
When you [D]love me all the w[G]ay[Bm7]
When you [D]take my side in e[G]very little fire fight[Bm7]
When you [D]hang your things and s[G]tay
I'm waiting on the [Bm7]day[D] [G]
Bm7 D G x4
D D/F# G D x2
W[D]aiting on the day when these [G]words are in s[D]tone
When the [G]kids are all g[D]rown
And we go [A]danc[Bm7]ing
[D]Oh, can you d[G]o it, baby[Bm7]
Can you l[D]ove me all the [G]way[Bm7]
Will you t[D]ie me tight in li[G]ttle strands of paradise
Will you w[Bm7]alk with me bef[D]ore the morning fad[G]es
I'm waiting on the[D] day[Cadd9] [G]
D Cadd9 G (Until the end) >>>>D

Important: The song above is NOT stored on the Chordie server. The original song is hosted at www.guitartabs.cc. Chordie works as a search engine and provides on-the-fly formatting. Chordie does not index songs against artists'/composers' will. To remove this song please click here.

Text color:
Chord color:
Chord grids: 
Font size:    
Page size: 

A Bm7 Cadd9 D D/F# G
Rate #2 of 8 versions

Login - add to songbook

SHARE PAGE  



You need to log in to post comments