Guitar Tabs, Chords and Lyrics
Server problems seems to be fixed. Chordie has been experiencing problems with songs disappearing. These issues now seems to be fixed, but still verifying the fix. If you find anything strange, please email admin@chordie.com.


Waiting on the World to Change  John Mayer

Just standard chords for the song.
Intro: D Bm G D
[A] [Bm] [G] [D] 
[D]Me and all my fr[Bm]iends, we're a[G]ll misundersto[D]od.
They s[A]ay we stand for not[Bm]hing, and theres no wa[G]y we ever cou[D]ld.
Now we see ever[D]ything thats g[Bm]oing wrong with the w[G]orld and those who l[D]ead it
We just f[A]eel like we don't h[Bm]ave the means to r[G]ise above and b[D]eat it.
So we keep wai[D]ting, [Bm] waiting on the wor[G]ld to cha[D]nge.
We keep on wai[A]ting, [Bm] waiting on the wo[G]rld to ch[D]ange.
It's ha[D]rd to beat the sy[G]stem, when you're sta[Bm]nding at a dis[G]tance,
So we keep wai[A]ting, [Bm] waiting on the wo[G]rld to ch[D]ange.
Now i[D]f we had the po[Bm]wer to bring our neig[G]hbors home from wa[D]r
They would have ne[A]ver missed a Ch[Bm]ristmas, No more ri[G]bbons on their doo[D]r
And when you tr[D]ust your tel[Bm]evision, What you g[G]et is what you g[D]ot
Cause when they ow[A]n the informa[Bm]tion, oh, They can b[G]end it all they w[D]ant
That's why we're wa[D]iting [Bm] Waiting on the wo[G]rld to chang[D]e
We keep on wai[A]ting [Bm] Waiting on the w[G]orld to chang[D]e
It's no[D]t that we don't c[G]are, We just kn[Bm]ow that the fight [G]ain't fair
So we keep on [A]waiting [Bm] Waiting on the [G]world to [D]change
SOLO (First Part)
 
 e|---------------------------------------------------------------|
 B|--7~~5h7/10~~7h10/12~~10h12/15~~12h15/17~17/19~~15~~~----------|
 G|---------------------------------------------------------------|
 D|---------------------------------------------------------------|
 A|---------------------------------------------------------------|
 E|---------------------------------------------------------------|

1 2 3 1/2 (easier than counting the bends)
 
 e|---------------------------------------------------------------|
 B|---19b20r19b20r19b202r19---15~~~~~-----------------------------|
 G|---------------------------------------------------------------|
 D|---------------------------------------------------------------|
 A|---------------------------------------------------------------|
 E|---------------------------------------------------------------|

2nd Part
 
 e|---------------------------------------------------------------|
 B|----------12/15-------------------7/10~------------------------|
 G|-----11h14--------14h16-11-----7h9-------9h11------------------|
 D|---------------------------------------------12~~~~~~----------|
 A|---------------------------------------------------------------|
 E|---------------------------------------------------------------|

And we're still wai[D]ting [Bm] Waiting on the wo[G]rld to cha[D]nge
We keep on wai[A]ting [Bm] Waiting on the wo[G]rld to cha[D]nge
One [D]day our genera[G]tion, Is gonna r[Bm]ule the popul[G]ation
So we keep on wai[A]ting [Bm] Waiting on the wo[G]rld to cha[D]nge
Now we keep on wa[A]iting [Bm] Waiting on the w[G]orld to ch[D]ange
We keep on wait[A]ing, [Bm] waiting on the wo[G]rld to cha[D]nge.
Waiting on the wo[G]rld to cha[D]nge(x4)

Important: The song above is NOT stored on the Chordie server. The original song is hosted at www.guitartabs.cc. Chordie works as a search engine and provides on-the-fly formatting. Chordie does not index songs against artists'/composers' will. To remove this song please click here.

Text color:
Chord color:
Chord grids: 
Font size:    
Page size: 

A Bm D G
Rate #1 of 11 versions

Login - add to songbook

SHARE PAGE  



You need to log in to post comments