Guitar Tabs, Chords and Lyrics
Server problems seems to be fixed. Chordie has been experiencing problems with songs disappearing. These issues now seems to be fixed, but still verifying the fix. If you find anything strange, please email admin@chordie.com.


Howl  Johnny Flynn

Joshua Elgar-Chetwyn
joshua.chetwyn@googlemail.com
HOWL
JOHNNY FLYNN
CAPO 2nd FRET
If the intro doesn't make sense send me and email and ill send you a recording of what
it should sound like
Chords used:
Em: 022000
B7: 021200
C: 332010
G: 320000
D': 000213
E': xxx987
E'* xxx9810 (9, 8, 10)
Intro/Verse:
Intro/Verse:
[Em] [D] [G] [C] [B7]  
 
 |---0---0--- 3---------------------------------------------------------------------|
 |---0-3b----h1---0h1p1-----------0-----0------1-----1-----------------0------------|
 |-----------h2-----------------------------------------0h2p2p0----0h2--------------|
 |-2----------------------------------------------0h2--------------0h1--0h1p10------| x2
 |-2------------------------2--------0h2---------------------------0h---------------|
 |-0-----------------------0-3---3------------0-------------------------------------|

This part is pretty loose and bluesy and no means right, but its what I can get and play
that sounds okay.
INTRO Solo
Strum B7 chord
 
 |-----9b-9b---------------------------------0----0---0--------|
 |--9/10b-10b--8b-8b-6b-6b-6/8---------------------------------|
 |-------------------------------7b------0h2--2/4---4/2-----2--|
 |-----------------------------------------------------------1-|
 |-----------------------------------------------------------2-|
 |---0----------0-----0----------0------0----------------------|

VERSE:
H[Em]owl for my ho[D]meland
[C] Wherever that w[B7]as
And h[Em]owl for the h[D]omage
[C] That's been gone and l[B7]ost
BREAK:
To the p[C]assing and t[G]emporal
The e[C]ons gone [G]by
There's n[C]othing to pr[G]aise
Not in ea[C]rth, sea or s[G]ky
Or w[B7]as what is holy's been shot
And in t[Em]ime to know
The r[C]est will soon follow
All the r[G]est will soon [B7]go
( Tab from: http://www.guitartabs.cc/tabs/j/johnny_flynn/howl_tab.html )
CHORUS:
S[C]tay in the l[G]ight, Joe
S[C]tay with yours[Em]elf
P[C]ut up a f[G]ight
Don't r[C]est on the sh[B7]elf
INSTRUMENTAL: C G C Em C G B7
B7 Walk down to Em into the verse
Hold B7 Chord shape
 
 |-----------------------|
 |-----------------------|
 |---2---2---2-----------|
 |-----------------2-----|
 |-2---0-----------2-----|
 |---------3---2---------|

VERSE:
G[Em]rowl at the p[D]edestal
[C] Growl at the pi[B7]nch
The l[Em]ast of the p[D]orts
Has [C] broken the wi[B7]nch
BREAK:
Oh, the l[C]egacy is g[G]one
And the p[C]eople who k[G]new
Have l[C]ost their mi[G]nds
Or l[C]eft, there's a f[G]ew
Who are ch[B7]oking on what
And the w[Em]ill to hold on
With their pr[C]inciples pinned
To the co[G]urts of abo[B7]ve
CHORUS:
S[C]tay in the l[G]ight, Joe
S[C]tay with yours[Em]elf
P[C]ut up a f[G]ight
Don't r[C]est on the sh[B7]elf
INSTRUMENTAL: C G C Em C G B7 - 2x's
B7 Walk down to Em
Hold B7 Chord shape
 
 |-----------------------|
 |-----------------------|
 |---2---2---2-----------|
 |-----------------2-----|
 |-2---0-----------2-----|
 |---------3---2---------|

VERSE:
[Em]Me and the t[D]eardrop
[C] Me and the mo[B7]untain
Oh, [Em]me and the c[D]heck
And[C] to meet my acco[B7]untant
BREAK:
Oh, [C]me and the w[G]olf
Who was e[C]ating my h[G]eart
And [C]me and my fr[G]iends
Who l[C]augh in the d[G]ark
Oh, and y[B7]ou and yours two
And y[Em]ou and yours three
And you and yours ev[C]er
B7 with walk down
And ever be free
CHORUS:
S[C]tay in the l[G]ight, Joe
S[C]tay with yours[Em]elf
P[C]ut up a f[G]ight
Don't r[C]est on the sh[B7]elf

Important: The song above is NOT stored on the Chordie server. The original song is hosted at www.guitartabs.cc. Chordie works as a search engine and provides on-the-fly formatting. Chordie does not index songs against artists'/composers' will. To remove this song please click here.

Text color:
Chord color:
Chord grids: 
Font size:    
Page size: 

B7 C D Em G
Rate #1 of 5 versions

Jango Player

Login - add to songbook

SHARE PAGE  



You need to log in to post comments