Guitar Tabs, Chords and Lyrics
Server problems seems to be fixed. Chordie has been experiencing problems with songs disappearing. These issues now seems to be fixed, but still verifying the fix. If you find anything strange, please email admin@chordie.com.


Synkkä kanala  Klamydia

 
 -------------------------------------------------------------------------------

SYNKKÄ KANALA - Klamydia
 
 -------------------------------------------------------------------------------

Tabbed by LeifTheEvilPimp
ballegg@yahoo.com
Intro: A5 C5 D5 G5
 
 e|----------------------------------------------------------------------|
 b|----------------------------------------------------------------------|
 g|----------------------------------------------------------------------|
 d|----------------------------------------------------------------------|
 a|-0-0-3-3-5-5-7-7--0-0-3-3-5-5-7-7--0-0-3-3-5-5-7-7-10-10-7-7-5-5-3-3--|
 e|----------------------------------------------------------------------|

Fill 1
 
 e|----------------|
 b|----------------|
 g|----------------|
 d|----------------|
 a|-0-3-5-6-5-3-0--|
 e|----------------|

[C5]Muna kädessä [E5]seisoo [A5]kanafarmin [F5]tunkiolla
[C5]siipiveikko, [G5]Anssi Kukko[F5]nen.
[C5]Liikevaihto [E5]pieni, [A5]munamies kuin [F5]pesusieni,
C5 G5 F5 (fill 1)
Ei viihdy kana surullinen.
[C5]Akka sanoi "Mä [E5]lähden!",[A5] sun viinan[F5]juontis tähden.
[C5]Nyt juna [G5]kauas tuota [F5]kanaa kuljet[E5]taa...
Jäi vain [A5]synkkä [F5]kanala, tuo siipi[D5]karjan mana[E5]la
Helvetin [F5]esikarta[D5]nossa naaras[G5]kukkoja lahda[E5]taan.
Taidan ot[A5]taa puhe[F5]lun Anja [G5]Eerikäisel[E5]le
Ja Karpol[F5]le, Hann[D5]ulle, olis [G5]jälleen [E5]asiaa.
[C5]Konkurssi [G5]uhkaa, [E5]munista [F5]tulee tuhkaa,
[C5]Sitä päälle[G5]nsä mies [F5]ripot[E/C]taa..[D5].[C5]
Soolo: C5 E5 A5 F5 C5 G5 F5
 
 e|-----------------------------------------------...
 b|----------------------------------------12^----...
 g|-----0-2-0-------0-2-0--2\-5\-7\-9\-12\-14^-7^-...
 d|---2-----------2-------------------------------...Alkaa jotenki noin...
 a|-3---------3-2---------------------------------...
 e|-----------------------------------------------...

[C5]Siipiveikko[E5]miehen, [A5]bisnes jäi [F5]puolitiehen,
[C5]nyt Anssia [G5]viedään vanki[F5]laan.
[C5]Kumpi olikaan [E5]ensin, [A5]muna vaiko [F5]kana lensi?
[C5]Saa vasta[G5]uksen kun suih[F5]kussa kumar[E5]taa.
Ja jäi vain [A5]synkkä [F5]kanala, tuo siipi[D5]karjan mana[E5]la
Helvetin [F5]esikarta[D5]nossa naaras[G5]kukkoja lahda[E5]taan.
Taidan ot[A5]taa puhe[F5]lun Anja [G5]Eerikäisel[E5]le
Ja Karpol[F5]le, Hann[D5]ulle, olis [G5]jälleen [E5]asiaa.
[C5]Konkurssi [G5]uhkaa, [E5]munista [F5]tulee tuhkaa,
[C5]Sitä päälle[G5]nsä mies [F5]ripottaa...
[C5]Konkurssi [G5]uhkaa, [E5]munista [F5]tulee tuhkaa,
C5 G5 F5 (fill 1)
Sitä päällensä mies ripottaa...
[C5]Muna! [C5]Kana!

Important: The song above is NOT stored on the Chordie server. The original song is hosted at www.guitartabs.cc. Chordie works as a search engine and provides on-the-fly formatting. Chordie does not index songs against artists'/composers' will. To remove this song please click here.

Text color:
Chord color:
Chord grids: 
Font size:    
Page size: 

A5 C5 D5 E/C E5 F5 G5
Rate #2 of 2 versions

Jango Player

Login - add to songbook

SHARE PAGE  



You need to log in to post comments