Guitar Tabs, Chords and Lyrics
Major upgrade!! After one year development the new version of Chordie is now online! Please give feedback.


Heartbreaking Music   Lagwagon

 
 G|-------------------------------------------------------|
 D|-------------------------------------------------------|
 A|--5*------3*----------5*------3*-----------------------|
 E|------6*------1+--5+------6*------1+--5+--6--8---------|

 


 


 Chorus


 

 
 G|--------------------3--------------|
 D|--------3-----3-3-3---3-3----------|
 A|--5-5-5---5-5--------------1~--3~--|
 E|-----------------------------------|
 G|---------[x3]-------3-----|-----------------------------|
 D|--------3-----3-3-3---3-3-|-------3-----3---------------|
 A|--5-5-5---5-5-------------|-5-5-5---5-5---3-----3-4-5---|
 E|--------------------------|-----------------------------|

 


 


 Verse


 

 
 G|-------------------------------------------------------|
 D|-------------------------------------------------------|
 A|--5*------3*----------5*------3*-----------------------|
 E|------6*------1+--5+------6*------1+--5+--6--8---------|

 


 


 Chorus


 

 
 G|--------------------3--------------|
 D|--------3-----3-3-3---3-3----------|
 A|--5-5-5---5-5--------------1~--3~--|
 E|-----------------------------------|
 G|---------[x3]-------3-----|-----------------------------|
 D|--------3-----3-3-3---3-3-|-------3-----3---------------|
 A|--5-5-5---5-5-------------|-5-5-5---5-5---3~------------|
 E|--------------------------|-----------------------------|

 


 


 Bridge


 

 
 G|-------------------------------------------------------7-7-7--------------------|
 D|------------------------8--8-8-8--------10--10-10-10---------8-8-8-7-7-7-5-5-5--|x3
 A|--5-5-8-5--5-5-5--5-5-8-----------5-5-8-----------------------------------------|
 E|--------------------------------------------------------------------------------|
 G|--------------------|
 D|--------------------|
 A|-----0*--1*--3+--4--|
 E|-1*-----------------|

 


 


 


 Verse


 

 
 G|-------------------------------------------------------|
 D|-------------------------------------------------------|
 A|----------------------5*------3*-----------------------|
 E|--------------1+--5+------6*------1+--5+--6--8---------|

 


 


 Chorus


 

 
 G|--------------------3--------------|
 D|--------3-----3-3-3---3-3----------|
 A|--5-5-5---5-5--------------1~--3~--|
 E|-----------------------------------|
 G|---------[x3]-------3-----|-----------------------|
 D|--------3-----3-3-3---3-3-|-------3~--3-----------|
 A|--5-5-5---5-5-------------|-5-5-5--------3--5--5--|
 E|--------------------------|-----------------------|


Important: The song above is NOT stored on the Chordie server. The original song is hosted at www.guitartabs.cc. Chordie works as a search engine and provides on-the-fly formatting. Chordie does not index songs against artists'/composers' will. To remove this song please click here.

This song is displayed as text-only. Transposing and tuning is only available for chordpro-songs.
Rate #1 of 4 versions

Login - add to songbook

SHARE PAGE  




You need to log in to post comments