Guitar Tabs, Chords and Lyrics
Server problems seems to be fixed. Chordie has been experiencing problems with songs disappearing. These issues now seems to be fixed, but still verifying the fix. If you find anything strange, please email admin@chordie.com.


So cool bist du nicht  Madsen

Hey Guys, this tab is "created" by my listening. So if there might be some
mistakes, please give me a note.
And I know there is no second guitar, but it's just so hard to hear that out.
So now have fun.
Song: So Cool Bist Du Nicht
Artist: Madsen (feat. Lisa Who)
Album: Wo Es Beginnt
Chords
|Bb |C# |Bb5|F#5|C#5|Eb |G# |
 
 e|---|---|---|---|---|---|---|
 B|---|---|---|---|---|---|---|
 G|-3-|-6-|---|---|---|-8-|---|
 D|-3-|-6-|---|---|-6-|-8-|-6-|
 A|-1-|-4-|-8-|-4-|-4-|-6-|-6-|
 E|---|---|-6-|-2-|---|---|-4-|

Intro
 
 e|-9------------|----8-9-11--|-9-----------|-13----8----|
 B|------6-8-99--|------------|------6-8-9--|------------|
 G|--------------|------------|-------------|------------|
 D|--------------|------------|-------------|------------|
 A|--------------|------------|-------------|------------|
 E|--------------|------------|-------------|------------|

Verse 1:
Ich [Bb]stolper über meinen Schatten,
[C#]laufe gegen offene Türen.
[Bb]Schlafe nachts mit wachen Augen,
[C#]höre nicht auf dich zu verlieren.
[Bb]Waren wir vielleicht zu feige,
[C#]oder war es echt vorbei?
[Bb]Jeder flieht auf seine Weise,
[C#]doch so einfach kann es nicht sein.
Chorus:
Du [Bb5]machst deine [F#5]Pläne so als [C#5]gäbe es mich [C#]nicht.
Du ver[Bb5]steckst deine [F#5]Tränen hinterm [C#5]abgeklärtem [C#]Blick.
Doch [Bb5]ich kann es [F#5]sehen in [C#5]deinem Ge[C#]sicht.
|C# |G# |
 
 e|-----------------|---------------------|
 B|---9---9---9---9-|---11---11---11---11-|x2
 G|-6---6---6---6---|-8----8----8----8----|

So [C#]cool bist du [G#]nicht, so [C#]gut kenn ich [G#]dich.
| |C# | | |
 
 e|-9---------8--|------------|-9------------|------------|
 B|------6-8-9---|------------|------6-8-9-4-|------------|

So [C#]cool bist du nicht.
Verse 2:
Ich [Bb]weiche deinen Blicken aus,
dann [C#]schaue ich dir hinterher.
[Bb]Sammel all die Spuren auf,
[C#]fühlst du wirklich garnichts mehr?
Ich [Bb]hör dich sagen, kühl und leise:
[C#]"Mit uns ist es eh vorbei"
[Bb]Jeder flieht auf seine Weise,
[C#]doch so einfach kann es nicht sein.
( Tab from: http://www.guitartabs.cc/tabs/m/madsen/so_cool_bist_du_nicht_tab.html )
Chorus:
Du [Bb5]machst deine [F#5]Pläne so als [C#5]gäbe es mich [C#]nicht.
Du ver[Bb5]steckst deine [F#5]Tränen hinterm [C#5]abgeklärtem [C#]Blick.
Doch [Bb5]ich kann es [F#5]sehen in [C#5]deinem Ge[C#]sicht.
|C# |G# |
 
 e|-----------------|---------------------|
 B|---9---9---9---9-|---11---11---11---11-|x4
 G|-6---6---6---6---|-8----8----8----8----|

So [C#]cool bist du [G#]nicht, so [C#]gut kenn ich [G#]dich.
So [C#]cool bist du [G#]nicht, mach dir nichts [F#]vor, ich kenne [G#]dich.
So cool bist du nicht.
| |C# | | |
 
 e|-9---------8--|------------|-9------------|------------|
 B|------6-8-9---|------------|------6-8-9-4-|------------|

So [C#]cool bist du nicht.
Solo
 
 e|-------------------|-------------6-----|
 B|-4-2---2-4-6-2-4---|-4-2---2-4-6---4---|
 G|-----3-------------|-----3-------------|
 D|-------------------|-------------------|
 A|-------------------|-------------------|
 E|-------------------|-------------------|

Chorus 2:
Ich [Bb5]kann dich nicht [F#5]halten, doch ich [C#5]lass dich nicht [C#]los.
Ich [Bb5]weiss du musst g[F#5]ehen, doch meine [C#5]Angst ist viel zu [C#]groß.
Ich [Bb5]kann dich noch [F#5]sehen, in [C#5]deinem Ge[C#]sicht.
|C# |G# |
 
 e|-----------------|---------------------|
 B|---9---9---9---9-|---11---11---11---11-|x6
 G|-6---6---6---6---|-8----8----8----8----|

So [C#]cool bist du [G#]nicht, so [C#]gut kenne ich [G#]dich.
So [C#]cool bist du [G#]nicht, so [C#]gut kenne ich [G#]dich.
So [C#]cool bist du [G#]nicht, mach dir nichts [F#]vor, ich kenne [G#]dich.
So [C#]cool bist du [G#]nicht.
So [C#]cool bist du [G#]nicht.
So [C#]cool bist du nicht.
Outro:
 
 e|-9------------|----8-9-11--|-9-----------|-13----8----|-9----------|
 B|------6-8-99--|------------|------6-8-9--|------------|------------|
 G|--------------|------------|-------------|------------|------------|
 D|--------------|------------|-------------|------------|------------|
 A|--------------|------------|-------------|------------|------------|
 E|--------------|------------|-------------|------------|------------|


Important: The song above is NOT stored on the Chordie server. The original song is hosted at www.guitartabs.cc. Chordie works as a search engine and provides on-the-fly formatting. Chordie does not index songs against artists'/composers' will. To remove this song please click here.

Text color:
Chord color:
Chord grids: 
Font size:    
Page size: 

Bb Bb5 C# C#5 F# F#5 G#
Rate #1 of 6 versions

Login - add to songbook

SHARE PAGE  



You need to log in to post comments