Guitar Tabs, Chords and Lyrics
Server problems seems to be fixed. Chordie has been experiencing problems with songs disappearing. These issues now seems to be fixed, but still verifying the fix. If you find anything strange, please email admin@chordie.com.


Vielleicht  Madsen

MADSEN - Vielleicht
INTRO
[C#5] [/] [D5] [/] [F5] [/] [C#5] [/] [D5] [/] [B5]  
VERSE
 
 e-------------------------------0---------0----------2----------2---|
 B---------------------------------1---------1----------3----------3-|
 G-----2-2h4-2------2-2h4-2----0---------0----------2----------2-----|
 D------------------------------------------------0----------0-------|
 A----------------2----------3---------3-----------------------------|
 E---3---------------------------------------------------------------|

[G] [Bm] [C] [D] 
 
 e--------------------------------|
 B--------------------------------|
 G-------8----------10---------12-|
 D-----8---8-----10----10------12-|
 A---6---------8---------------10-|
 E------------------------------0-|

[Eb] [F] [G]  
[G]Jetzt bin ich wieder [Bm]hier
[G]frag mich was ist pass[Bm]iert
[C]stell mit bedauern f[D]est
das a[Eb]lles unver[F]ändert [G]ist
[G]nicht gut und nicht sc[Bm]hlecht
[G]möchte am liebsten hier[Bm] weg
[C]irgendetwas hält mich f[D]est
[Eb]und ich wil[F]l dass es mich l[G]oslässt
[G5]Vielleicht ist das der Anfang
[C5]Vielleicht ist das das Ende
[B5]doch es gibt nichts schlimmeres als un[C]gewiss zu s[Cm]ein
( Tab from: http://www.guitartabs.cc/tabs/m/madsen/vielleicht_tab.html )
[G5]Vielleicht ist das der Anfang
[C5]Vielleicht ist das das Ende
[B5]doch es gibt nichts schlimmere[Eb5]s als a[F5]llein zu sein
nochmal: INTRO
[G]Durch welche Tür soll ich jetzt [Bm]gehn'
[G]oder bleib' ich zwischen ihnen s[Bm]tehn'
[C]bin ich gebunden ans [D]System
[Eb]oder will ich [F]neue Dinge s[G]ehn'
[G]Stand immer fest auf zwei B[Bm]einen
[G]ging niemals Risiken [Bm]ein
[C]jetzt stehst du neben m[D]ir
[Eb]doch du bleibst nicht [F]lange h[G]ier
[G5]Vielleicht ist das der Anfang
[C5]Vielleicht ist das das Ende
[B5]doch es gibt nichts Schlimmeres als u[C]ngewiss zu s[Cm]ein
[G5]Vielleicht ist das der Anfang
[C5]Vielleicht ist das das Ende
[B5]doch es gibt nichts Schlimmeres[Eb5] als allein zu [F5]sein
[G5]Vielleicht ist das der Anfang
[C5]Vielleicht ist das das Ende
[B5]doch es gibt nichts Schlimmeres als [C]ungewiss zu [Cm]sein
[G5]Vielleicht ist das der Anfang
[C5]Vielleicht ist das das Ende
[B5]doch es gibt nichts Schlimmere[Eb5]s als all[F5]ein zu sein
[Eb5]...als al[F5]lein zu sein.[Eb5]..als al[F5]lein zu sei[E5]n

Important: The song above is NOT stored on the Chordie server. The original song is hosted at www.guitartabs.cc. Chordie works as a search engine and provides on-the-fly formatting. Chordie does not index songs against artists'/composers' will. To remove this song please click here.

Text color:
Chord color:
Chord grids: 
Font size:    
Page size: 

B5 Bm C C#5 C5 Cm D D5 E5 Eb Eb5 F F5 G G5
Rate #2 of 6 versions

Jango Player

Login - add to songbook

SHARE PAGE  




You need to log in to post comments