Guitar Tabs, Chords and Lyrics
Server problems seems to be fixed. Chordie has been experiencing problems with songs disappearing. These issues now seems to be fixed, but still verifying the fix. If you find anything strange, please email admin@chordie.com.


Black Heart Romance  My Dying Bride

================================================================================
M Y D Y I N G B R I D E
[-] 
B L A C K H E A R T R O M A N C E
================================================================================
THE DREADFUL HOURS
(c) Peaceville Records (2001)
http://www.mydyingbride.org/
Tune Down 1 & 1/2 Steps
[5-String Bass] 
[G#] [C#] [F#] [B] [E] 
Tempo = 68 BPM
Time Signature = 3/4
 
 -----------------------------

Transcribed by
PADDY MCMULLAN
stinkypoohpants@yahoo.co.uk
Version 1.0
5th January 2010
 
 -----------------------

Tablature Symbols Used:
p - Pull-Off
h - Hammer-On
\ - Slide Down to/Down From
/ - Slide Up To/Up From
( ) - Ghost Note/Tied Note/Implied Note
% - Whammy Pedal (Articulation is indicated above tab, blank spaces
indicate length of articulation)
REST - Rest and sustain rest for duration of blank space
|____[1,2,3] - Alternative Endings
================================================================================
Section 1: Play 4 times
================================================================================
Rest for 4 bars before joining in
|__________________[1,3,4]
 
 ||----------------------|----------------------| |
 ||----------------------|----------------------|*|
 ||----------------------|----------------------| |
 ||----------------------|----------------------|*|
 ||--5----5--(5/8)----8--|--7 \ 3--3--3--1--1 / | |

|_______________________[2]
 
 |------------------------||
 |------------------------||
 |------------------------||
 |------------------------||
 |--7 \ 3--5p3-3\1-1--1 / ||

================================================================================
Section 2: Play 4 times
================================================================================
 
 ||-----------------------|--------------------------| |
 ||-----------------------|--------------------------|*|
 ||-----------------------|--------------------------| |
 ||-----------------------|--------------------------|*|
 ||--5--5--5--(5/8)-8--8--|--8 \3-3--3--3 \1-1--1 /5-| |

================================================================================
Repeat Section 1
================================================================================
================================================================================
Repeat Section 2
================================================================================
================================================================================
Repeat Section 1
================================================================================
================================================================================
Section 3: Play 4 times
================================================================================
|______________________[1,2,4]
 
 ||------------------|--------------------------| |
 ||------------------|--------------------------|*|
 ||------------------|--0h2-0---0h3-------------| |
 ||------------------|--------3-----1p0-0---0---|*|
 ||--2--2--2--1------|--------------------------| |

|________________________[3]
 
 |---------------------R- -|
 |---------------------E- -|
 |--0h2-0---0h3--------S- -|
 |--------3-----1p0-0--T- -|
 |--------------------------|

================================================================================
Segue: Play once
================================================================================
 
 ||--7------6------|--(6)----------|--9-------8------|--(8)----------| |
 ||--8------7------|--(7)----------|--10------9------|--(9)----------|*|
 ||----------------|---------------|-----------------|---------------| |
 ||----------------|---------------|-----------------|---------------|*|
 ||----------------|---------------|-----------------|---------------| |

================================================================================
Section 4: Play 4 times
================================================================================
 
 | |-------------------------|-------------------------| |
 |4|-------------------------|-------------------------|*|
 |/|-------------------------|-------------------------| |
 |4|--6--6--6--5----5--5--5--|--7--7--7--5----5--5--5--|*|
 | |-------------------------|-------------------------| |

================================================================================
Section 5: Play 4 times
================================================================================
% [Gradually depress wbammy pedal 2 and 1/2 steps]
 
 | |------------------------------| |------------------| |
 |4|------------------------------|7|------------------|*|
 |/|------------------------------|/|------------------| |
 |4|------------------------------|8|------------------|*|
 | |--2--------2--2--1-- -| |--(1)- -| |

End the riff with the following:
 
 | |-----------|
 |3|-----------|
 |/|-----------|
 |8|-----------|
 | |--2--2--2--|

================================================================================
Repeat Section 4
================================================================================
================================================================================
Repeat Section 5, with the following tail:
================================================================================
 
 | |-----------|
 |3|-----------|
 |/|-----------|
 |8|--1--1--1--|
 | |-----------|

================================================================================
Repeat Section 1
================================================================================
================================================================================
Repeat Section 2
================================================================================
================================================================================
[End]================================================================================
Tab summary: Section 1 x 4
Section 2 x 4
Section 1 x 4
Section 2 x 4
Section 1 x 4
Section 3 x 4
Section 4 x 4
Section 5 x 4
Section 4 X 4
Section 5 x 4
Section 1 x 4
Section 2 x 4
END

Important: The song above is NOT stored on the Chordie server. The original song is hosted at www.guitartabs.cc. Chordie works as a search engine and provides on-the-fly formatting. Chordie does not index songs against artists'/composers' will. To remove this song please click here.

Text color:
Chord color:
Chord grids: 
Font size:    
Page size: 

B C# E F# G#
Rate #1 of 5 versions

Login - add to songbook

SHARE PAGE  




You need to log in to post comments