Guitar Tabs, Chords and Lyrics
Major upgrade!! After one year development the new version of Chordie is now online! Please give feedback.


No Ordinary Love   M.Y.M.P.

 
 e|--5---5-----5--------------|
 B|---------------------------|
 G|----7---7-------7---7------|
 D|--0---------4-4-----5------|
 A|---------------------------|
 E|---------------------------|

 


 


 verse:


 Dsus2 (tapos vary nyo ung base notes)


 

 
 e|--------0---------------0------*--------2-----0--hold--|
 B|------3-----3---------3-----4--*------3-----3----------|
 G|----2---------------2----------*----4-----4------------| twice
 D|--0-------0-------4-------4----*--5--------------------|
 A|-------------------------------*-----------------------|
 E|-------------------------------*-----------------------|

 


 This could have been just another day


 But instead we're standing here


 No need for words, it's all been said


 In the way you hold me near


 


 refrain:


 

 
 e|--------2------*------------0-*------------0--*----0-----*--|
 B|------3-----3--*--------3-----*--------3------*----------*--|
 G|----4----------*------4-------*---------------*--3-------*--|
 D|---------------*----4---------*------0--------*----pause-*--|
 A|--1-------1----*--2-------2---*----2----------*----------*--|
 E|---------------*--------------*--3-------3----*--2-------*--|

 


 I was alone on this journey You came along to comfort me


 


 

 
 e|----------0-----------------0--*------------------------------------0---*|
 B|--------3---3-----------3------*---------3--3-hold---3--3-hold----3---3-*|
 G|------2-------2-------2--------*-------2----2-hold-2------------2-------*|
 D|----0-----------0---0----------*----------------------------------------*|
 A|-------------------------------*-0-hold-----------------0-hold----------*|
 E|--0---------------0-------0----*----------------------------------------*|

 


 Everything i want in life is right here


 


 chorus:


 

 
 e|-------0-----*-----------0-*----|
 B|-----3-----3-*-------3-----*----|
 G|---2---------*-----2-------*----|
 D|-0-------0---*---0---------*----|
 A|-------------*-------------*----|
 E|-------------*-2-------2---*----|
 e|------------------------------*---|
 B|--------------2-------3---3---*---|
 G|-----2------2-------2---------*---|
 D|----0-------------0-----0-----*---|
 A|----------0-----0-------------*---| \
 E|--3-----3---------------------*---| \

 


 \ base notes are to be


 

 
 e|------------------------------*---| / emphasized
 B|--------------2-------3---3---*---| /
 G|-----2------2-------2---------*---| /
 D|----0-------------------0-----*---|
 A|----------0-----0-2-----------*---|
 E|--3-----3---------------------*---|
 e|-----------0-*------------*---|
 B|-------3-----*-3---3---3--*---|
 G|-----2-------*---2--------*---|
 D|---0-----0---*------------*---|
 A|-------------*-0-----0----*---|
 E|-0-----------*------------*---|

 


 'cause this is not your ordinary


 No ordinary love


 I was not prepared enough


 To fall so deep in love


 


 [+++++++++++++++++++++++++++++++++]  


 

 
 e|-------0-----*-----------0-*----|
 B|-----3-----3-*-------3-----*----|
 G|---2---------*-----2-------*----|
 D|-0-------0---*---0---------*----|
 A|-------------*-------------*----|
 E|-------------*-2-------2---*----|
 e|------------------------------*---|
 B|--------------2-------3---3---*---|
 G|-----2------2-------2---------*---|
 D|----0-------------0-----0-----*---|
 A|----------0-----0-------------*---| \
 E|--3-----3---------------------*---| \

 


 \ base notes are to be


 

 
 e|------------------------------*---| / emphasized
 B|--------------2-------3---3---*---| /
 G|-----2------2-------2---------*---| /
 D|----0-------------------0-----*---|
 A|----------0-----0-2-----------*---|
 E|--3-----3---------------------*---|
 e|------------0--*---------------*---|
 B|--------3------*--------3---3--*---|
 G|------2--------*------2--------*---|
 D|----0----------*----0-----0----*---|
 A|---------------*--0------------*---|
 E|--4-------4----*---------------*---|

 


 This is not your ordinary


 No ordinary love


 You were the first to touch my heart


 Made everything right again


 With your extraordinary love


 


 +++++++++++++++++++++++part-two+++++++++++++++++++++++++++++++++++++++++++++


 


 second intro:


 

 
 e|--5---5-------------------------------------|
 B|--------------------------------------------|
 G|----7---7---6---7---7--hold-----------------|
 D|--0---------4-------5--hold-----------------|
 A|------------------------------------2p0-----|
 E|--------------------------------0h3---------|

 


 


 verse:


 Dsus2 (tapos vary nyo ung base notes)


 

 
 e|--------0---------------0------*--------2-----0--hold--|
 B|------3-----3---------3-----4--*------3-----3----------|
 G|----2---------------2----------*----4-----4------------| twice
 D|--0-------0-------4-------4----*--5--------------------|
 A|-------------------------------*-----------------------|
 E|-------------------------------*-----------------------|

 


 I get so weak


 When you look at me


 I get lost inside your eyes


 Sometimes the magic is hard to believe


 But you're here before my weary eyes


 


 refrain:


 

 
 e|--------2------*------------0-*------------0--*----0-----*--|
 B|------3-----3--*--------3-----*--------3------*----------*--|
 G|----4----------*------4-------*---------------*--3-------*--|
 D|---------------*----4---------*------0--------*----pause-*--|
 A|--1-------1----*--2-------2---*----2----------*----------*--|
 E|---------------*--------------*--3-------3----*--2-------*--|

 


 You brought joy to my world


 Set me so free


 


 

 
 e|----------0-----------------0--*------------------------------------0---*|
 B|--------3---3-----------3------*---------3--3-hold---3--3-hold----3---3-*|
 G|------2-------2-------2--------*-------2----2-hold-2------------2-------*|
 D|----0-----------0---0----------*----------------------------------------*|
 A|-------------------------------*-0-hold-----------------0-hold----------*|
 E|--0---------------0-------0----*----------------------------------------*|

 


 I want you to understand


 You are every breath that i breathe


 


 chorus:


 

 
 e|-------0-----*-----------0-*----|
 B|-----3-----3-*-------3-----*----|
 G|---2---------*-----2-------*----|
 D|-0-------0---*---0---------*----|
 A|-------------*-------------*----|
 E|-------------*-2-------2---*----|
 e|------------------------------*---|
 B|--------------2-------3---3---*---|
 G|------2-----2-------2---------*---|
 D|----0-------------0-----0-----*---|
 A|----------0-----0-------------*---| \
 E|--3-----3---------------------*---| \

 


 \ base notes are to be


 

 
 e|------------------------------*---| / emphasized
 B|--------------2-------3---3---*---| /
 G|------2-----2-------2---------*---| /
 D|----0-------------------0-----*---|
 A|----------0-----0-2-----------*---|
 E|--3-----3---------------------*---|
 e|-----------0-*------------*---|
 B|-------3-----*-3---3---3--*---|
 G|-----2-------*---2--------*---|
 D|---0-----0---*------------*---|
 A|-------------*-0-----0----*---|
 E|-0-----------*------------*---|

 


 'cause this is not your ordinary


 No ordinary love


 I was not prepared enough


 To fall so deep in love


 


 [+++++++++++++++++++++++++++++++++]  


 

 
 e|-------0-----*-----------0-*----|
 B|-----3-----3-*-------3-----*----|
 G|---2---------*-----2-------*----|
 D|-0-------0---*---0---------*----|
 A|-------------*-------------*----|
 E|-------------*-2-------2---*----|
 e|------------------------------*---|
 B|--------------2-------3---3---*---|
 G|------2-----2-------2---------*---|
 D|----0-------------0-----0-----*---|
 A|----------0-----0-------------*---| \
 E|--3-----3---------------------*---| \

 


 \ base notes are to be


 

 
 e|------------------------------*---| / emphasized
 B|--------------2-------3---3---*---| /
 G|------2-----2-------2---------*---| /
 D|----0-------------------0-----*---|
 A|----------0-----0-2-----------*---|
 E|--3-----3---------------------*---|
 e|------------0--*---------------*---|
 B|--------3------*--------3---3--*---|
 G|------2--------*------2--------*---|
 D|----0----------*----0-----0----*---|
 A|---------------*--0------------*---|
 E|--4-------4----*---------------*---|

 


 This is not your ordinary


 No ordinary love


 You were the first to touch my heart


 Made everything right again


 With your extraordinary love


 


 bridge:


 


 

 
 e|------------2--*------------2--*--------0-----*--------0-----*---|
 B|--------3------*--------3------*------3-----3-*------3-----3-*---|
 G|------0--------*------0--------*----2---------*----2---------*---| twice
 D|----2----------*----2----------*--0-------0---*--0-------0---*---|
 A|--3-------3----*--3-------3----*--------------*--------------*---|
 E|---------------*---------------*--------------*--------------*---|

 


 From the very first time that we kissed


 I knew that i just couldn't let you go at all


 From this day on, remember this:


 That you're the only one that i adore


 


 

 
 e|------------0-*-------0------*----|
 B|--------3-----*-----3-----3--*----|
 G|------0-------*---2----------*----| three times
 D|----2---------*-0-------0----*----|
 A|--3-------3---*--------------*----|
 E|--------------*--------------*----|

 


 Can't we make this last forever


 This can't be a dream


 


 

 
 e|------------------------------------------0---*----|
 B|-----------3--3-hold----3---3-hold------3---3-*----|
 G|---------2----2-hold--2---------------2-------*----|
 D|----------------------------------------------*----|
 A|--0-hold--------------------0-hold------------*----|
 E|----------------------------------------------*----|

 


 coz it feels so0000


 


 

 
 e|-------0-----*-------0-----*----|
 B|-----3-----3-*-----3-----3-*----|
 G|---2---------*---2---------*----|
 D|-0-------0---*-4-------4---*----|
 A|-------------*-------------*----|
 E|-------------*-------------*----|

 


 good to me....


 


 ending:


 


 

 
 e|--5---5-----5----------------|----------------|--5---------|
 B|-----------------------------|----------------|--5---------|
 G|----7---7-------7---7--hold--|----------------|--7--end----|
 D|--0---------4-4-----5--hold--|----------------|--7---------|
 A|-----------------------------|------2p0-hold--|--5---------|
 E|-----------------------------|--0h3-----------|--x---------|


Important: The song above is NOT stored on the Chordie server. The original song is hosted at www.guitartabs.cc. Chordie works as a search engine and provides on-the-fly formatting. Chordie does not index songs against artists'/composers' will. To remove this song please click here.

This song is displayed as text-only. Transposing and tuning is only available for chordpro-songs.
Rate #5 of 7 versions

Login - add to songbook

SHARE PAGE  



You need to log in to post comments