Guitar Tabs, Chords and Lyrics
Update 25:10. 13:00. Site is back up running again. Songbooks are recovered. Woring on getting search back up..


Sunny Blue  Panda

[F#] [Gm#] [Am#] [B5] [C#5]  
 
 E----------------------------------------------|
 A-----------------------------------2--4-------|
 D-----------------------------------4--6-------| X4
 G--2/3-----3--4-------4--6-------6-------------|
 B--------2------4---4------6---6---------------|
 e------2----------4----------6-----------------|

[F#]Vimos los [Gm#]dos[Am#]
Que[B5] no [C#5]haya [F#]sido un er[Gm#]ror como aq[Am#]uel[B5] [C#5]
[F#]Siempre ca[Gm#]mbio[Am#]
Su [B5]for[C#5]ma de[F#] ser y de[Gm#]jo de viv[Am#]ir[B5] [C#5]
CORO:
[B5]Y si lo s[F#5]iento[C#5]
Me lo pierdo no
[B5]Y si lo s[F#5]iento[G#5], perder[C#5]
[B5]Y si lo s[F#5]iento[C#5]
Me lo pierdo no
[B5]Y si lo [F#5]siento[G#5], perde[C#5]r
[F#] [Gm#] [Am#] [B5] [C#5]  
 
 E----------------------------------------------|
 A-----------------------------------2--4-------|
 D-----------------------------------4--6-------| X2
 G--2/3-----3--4-------4--6-------6-------------|
 B--------2------4---4------6---6---------------|
 e------2----------4----------6-----------------|

[F#]Sigue el te[Gm#]mor[Am#]
Que [B5]siempre h[C#5]e ten[F#]ido al est[Gm#]ar junto a[Am#] ti[B5] [C#5]
[F#]Nunca cam[Gm#]bie[Am#]
Mi [B5]forma[C#5] de s[F#]er y de[Gm#]je de vi[Am#]vir[B5] [C#5]
CORO:
[B5]Y eso no es [F#5]cierto[C#5]
No es un infierno no
[B5]No es un in[F#5]fierno e[G#5]star jun[C#5]to a ti
[B5]Y eso no es [F#5]cierto[C#5]
No es un infierno no
[B5]No es un in[F#5]fierno e[G#5]star jun[C#5]to a ti
B F# C# F#, B F# Gm# C# X2
[F#] [Gm#] [Am#] [B5] [C#5]  
 
 E----------------------------------------------|
 A-----------------------------------2--4-------|
 D-----------------------------------4--6-------| X2
 G--2/3-----3--3/4-----4--4/6-----6-------------|
 B--------2----------4----------6---------------|
 e------2----------4----------6-----------------|

CORO:
[B5]Y eso no es [F#5]cierto[C#5]
No es un infierno no
[B5]No es un in[F#5]fierno e[G#5]star jun[C#5]to a ti
[B5]Y eso no es [F#5]cierto[C#5]
No es un infierno no
[B5]No es un in[F#5]fierno e[G#5]star jun[C#5]to a ti
[B5]Y eso no es [F#5]cierto[C#5]
No es un infierno no
[B5]No es un in[F#5]fierno e[G#5]star jun[C#5]to a ti
[B5]Y eso no es [F#5]cierto[C#5]
No es un infierno no
[B5]Y eso no es [F#5]cierto[G#5]
juan-killerman
asd-qwert@hotmail.com

Important: The song above is NOT stored on the Chordie server. The original song is hosted at www.guitartabs.cc. Chordie works as a search engine and provides on-the-fly formatting. Chordie does not index songs against artists'/composers' will. To remove this song please click here.

Text color:
Chord color:
Chord grids: 
Font size:    
Page size: 

B5 C#5 F# F#5 G#5
Rate #2 of 3 versions

Jango Player

Login - add to songbook

SHARE PAGE  




You need to log in to post comments