Guitar Tabs, Chords and Lyrics
Server problems seems to be fixed. Chordie has been experiencing problems with songs disappearing. These issues now seems to be fixed, but still verifying the fix. If you find anything strange, please email admin@chordie.com.


Nandito  Parokya ni Edgar

(this is my first tab... nyaha! dami png sablay, kau n po bhla mag-ayos :)
>>pls rate...
Intro:
 
 e|--------------------------------------|------------------------------|
 B|-----0----2h3---------------2-2-2h3s5-|-------------------------/12v-|
 G|----1----------7-6------6-7-----------|-6-7--7-6-----6-7-9-9---------|
 D|---2--------------7s9-----------------|---------7s9------------------|
 A|--2-----------------------------------|------------------------------|
 E|-0------------------------------------|------------------------------|

[1] [2] 
VERSE1:
[E] Ilang taon nang nagdaan[Bm]
Di ko pa[A] rin natitikman na ang[Am]
ikaw ay halikan ko[E]
at madama ang 'yong kamay[Bm]
hinahapl[A]os aking mukha hindi
mo[Am] ba nakikita
( Tab from: http://www.guitartabs.cc/tabs/p/parokya_ni_edgar/nandito_tab.html )
REFRAIN:
[C#m] na ako'y magh[F#m]inhintay kail[A]an pa
[Am]  
[man]  
[C#m] hindi mag[F#m]babago ikaw[A] lang
ang l[Am]aman ng puso ko
(repeat part1 of intro)
VERSE2:
[E] naaalala mo pa ba[Bm]
inaaw[A]itan pa kita halos lah[Am]at
ay nagawa[E]
di mo pa rin naramda[Bm]man
kahit is[A]ang sulyap man lang
sana na[Am]man ay pagbigyan
(repeat refrain)
BRIDGE:
[D]oh, dapat malam[Am]an mo na
ako'y mama[G]tay
kung[Gm] di kita kapiling habang
buh[D]ay
dapat mala[Am]man mo na ikaw
lamang ang sy[G]ang
minamah[Gm]al kailanman
(repeat refrain)
 
 e|-------------------------------14-12-11--|---15-15-17-15-15-17-19-17-|
 B|--15-13/12-12h13---------17-17-----------|---------------------------|
 G|-12------------12--14-16-----------------|---------------------------|
 D|-----------------14----------------------|---------------------------|
 A|-----------------------------------------|---------------------------|
 E|-----------------------------------------|---------------------------|

add me up s friendster: magedoll13@yahoo.com
\m/ jenta

Important: The song above is NOT stored on the Chordie server. The original song is hosted at www.guitartabs.cc. Chordie works as a search engine and provides on-the-fly formatting. Chordie does not index songs against artists'/composers' will. To remove this song please click here.

Text color:
Chord color:
Chord grids: 
Font size:    
Page size: 

A Am Bm C#m D E F#m G Gm
Rate #1 of 4 versions

Jango Player

Login - add to songbook

SHARE PAGE  




You need to log in to post comments