Guitar Tabs, Chords and Lyrics
Login is temporarily disabled for some users. Do not panic. Will be back in an hour or two. DO NOT REREGISTER!!


Jauh Mimpiku  peterpan

peterpan tabs by epan(pisang_boy)
smks 19 5pd '06
ni wat bodo2 je...
chord slah tu...
jauh mimpiku
Intro:
[G] [Am] [Em7] [Cadd9]  
 
 e|-------|------------------------------------------|
 B|-------|-------0--------0--------0-3-5-3----------|
 G|-Drums-|-----2--------2--------2------------------|
 D|-------|(5)5-----(5)5-----(5)5-----------Ulang(4x)|
 A|-------|------------------------------------------|
 E|-------|------------------------------------------|

Verse 1:
[G]pernah ku s[Cadd9]impan jauh rasa[D] ini
[G]berdua jala[Cadd9]ni cerita[D]
[G]kau ciptaka[Cadd9]n mimpiku(fiil [D]1)
[G]jujurku han[Cadd9]ya sesalkan dir[D]iku(fill 1)
fill 1:
[G] [Am] [Em] [Cadd9]  
 
 e|-------------------------------2--|
 B|-------0--------0--------3-0-0----|
 G|-----2--------2--------2----------|
 D|(5)5-----(5)5-----(5)5------------|
 A|----------------------------------|
 E|----------------------------------|

( Tab from: http://www.guitartabs.cc/tabs/p/peterpan/jauh_mimpiku_tab.html )
back to intro tabs:(2x)
verse 2:
[G]Kau tinggal[Cadd9]kan mimpiku(fil[D]l 1)
[G]namunku han[Cadd9]ya sesalkan dir[D]i ku(fill 1)
Chores:
(fil[Em]l 2)ku h[Cadd9]arus lepas[G]kan mu[D]
(fil[Em]l 2)melu[Cadd9]pakan seny[G]um mu[D]
Fill 2:
 
 e|------0-|
 B|----0---|
 G|--2-----|
 D|5-------|
 A|--------|
 E|--------|

Reff:(With intro tabs)
[G]Semua tentang [Am]mu
[Em]tentang ku han[Cadd9]ya harap
[G]jauh ku j[Am]auh mimpi[Em]ku
[Cadd9]dengan inginku[G]
Intro Tabs:(2x)
ulang chores:
ulang Reff:(2x)
Outro:
[G](Jauh mimpi[Am]ku)
[Em]jauh [Cadd9]mimpiku d[G]engan inginku
[Cadd9](jauh mimpiku) dengan ingink[G]u(End)
End:
 
 e|----------------|
 B|-----0-3-5-3----|
 G|---2------------|
 D|/5-----------5~~|
 A|----------------|
 E|----------------|

Aku Buat 3/2/2007.....

Important: The song above is NOT stored on the Chordie server. The original song is hosted at www.guitartabs.cc. Chordie works as a search engine and provides on-the-fly formatting. Chordie does not index songs against artists'/composers' will. To remove this song please click here.

Text color:
Chord color:
Chord grids: 
Font size:    
Page size: 

Am Cadd9 D Em Em7 G
Rate #1 of 2 versions

Jango Player

Login - add to songbook

SHARE PAGE  



You need to log in to post comments