Guitar Tabs, Chords and Lyrics
Major upgrade!! After one year development the new version of Chordie is now online! Please give feedback.


Kung Ayaw Mo Na Sa Akin  Sugarfree

tabbed by:Agoy Tenepre
artist:sugarfree
Song:kung ayaw mo na sa akin
Album:Tala-arawan
for suggestion call/text me..(textmate tayo!!)heheheh
CP #-09184418517 (smart)
add nyo din ako sa friendster=katerinoo@yahoo.com
Tuning:standard but half step down Eb Ab Db Gb Bb Eb
Intro:(after the drum solo..)
 
 E||------------------------------------------------------------||
 B||------------------------------------------------------------||
 G||---------------------------12121212--14141414--161616--1919-||
 D||--333333333--444444444-----12121212--14141414--161616--1919-||
 A||--333333333--555555555-----10101010--12121212--141414--1717-||
 E||--111111111--222222222--------------------------------------||

i timing nyo lang ang strumming....
Verse:
kung ayaw[C] mo na sa akin di na kita pipilitin
 
 E||--3333--3333------0000----0000----||
 B||--3333--3333------3333----3333----||
 G||--0000--0000------0000----0000----||
 D||--2222--2222------2222----2222----||
 A||--3333--3333------3333----3333----||
 E||----------------------------------||

Kung buo n[F]a ang loob mo bahala ka[Fm]na sa buhay [G]mo
 
 E||--1111---1111-----------11111-------0000||
 B||--1111---1111-----------11111-------3333||
 G||--2222---2222-----------11111-------0000||
 D||--3333---3333-----------33333-------0000||
 A||--3333---3333-----------33333-------2222||
 E||--1111---1111-----------11111-------3333||

at di ako desp[C]erado sa walang kapantay na pag ibig mo
 
 E||--3333--3333------0000----0000----||
 B||--3333--3333------3333----3333----||
 G||--0000--0000------0000----0000----||
 D||--2222--2222------2222----2222----||
 A||--3333--3333------3333----3333----||
 E||----------------------------------||

sa[F] mga kong walang kasing tamis tu[Fm]big ako at ik[G]aw ay langis
 
 E||--1111---1111--------------------11111-------0000----------||
 G||--2222---2222--------------------11111-------0000--||
 A||--3333---3333--------------------33333-------2222--||
 E||--1111---1111--------------------11111-------3333----------||

Refrain:
[G]kung hindi ka na babali[C]k[B] [C] [B] [C]
 
 E||-----------------------------------------||
 B||-----------------------------------------||
 G||--------------------------5545455-554545-||
 D||--55555555----------------5545455-554545-||
 A||--55555555----------------3323233-332323-||
 E||--33333333-------------------------------||

ar[G]aw-araw na akong g[C]ig[B]im[C]ik[B] [C]
 
 E||------------------------------------||
 B||------------------------------------||
 G||---------------------5545455-554545-||
 D||--55555555-----------5545455-554545-||
 A||--55555555-----------3323233-332323-||
 E||--33333333--------------------------||

[Em] kung malayo ka[A]na
 
 E||--------------------------||
 B||--------------------------||
 G||--------------------------||
 D||--22222222--------77777777||
 A||--22222222--------77777777||
 E||--00000000--------55555555||

ay mal[F]aya na ako ngunit [F#m/D]ang kahapon ay bihag parin ng[G] alaala mo
 
 E||-----------------------------------------------------------||
 B||-----------------------------------------------------------||
 G||-2222222---------------------------------------------------||
 D||-3333333-------------444444444------------------55555555555||
 A||-3333333-------------555555555------------------55555555555||
 E||-1111111-------------222222222------------------33333333333||

verse 2:
( Tab from: http://www.guitartabs.cc/tabs/s/sugarfree/kung_ayaw_mo_na_sa_akin_tab_ver_2.html )
kung ayaw[C] mo na sa akin di na kita pipilitin
 
 E||--3333--3333------0000----0000----||
 B||--3333--3333------3333----3333----||
 G||--0000--0000------0000----0000----||
 D||--2222--2222------2222----2222----||
 A||--3333--3333------3333----3333----||
 E||----------------------------------||

Kung buo n[F]a ang loob mo bahala ka[Fm]na sa buhay [G]mo
 
 E||--1111---1111-----------11111-------0000||
 B||--1111---1111-----------11111-------3333||
 G||--2222---2222-----------11111-------0000||
 D||--3333---3333-----------33333-------0000||
 A||--3333---3333-----------33333-------2222||
 E||--1111---1111-----------11111-------3333||

at di ako des[C]perado sa walang kapantay na pag ibig mo
 
 E||--3333--3333------0000----0000----||
 B||--3333--3333------3333----3333----||
 G||--0000--0000------0000----0000----||
 D||--2222--2222------2222----2222----||
 A||--3333--3333------3333----3333----||
 E||----------------------------------||

sa[F] mga kong walang kasing tamis tu[Fm]big ako at ik[G]aw ay langis
 
 E||--1111---1111--------------------11111-------0000----------||
 G||--2222---2222--------------------11111-------0000--||
 A||--3333---3333--------------------33333-------2222--||
 E||--1111---1111--------------------11111-------3333----------||

kung ayaw mo n[C]a sa akin di na kita hahabulin
 
 E||--3333--3333------0000----0000----||
 B||--3333--3333------3333----3333----||
 G||--0000--0000------0000----0000----||
 D||--2222--2222------2222----2222----||
 A||--3333--3333------3333----3333----||
 E||----------------------------------||

medyo [F]bata pa namn ako may ma[Fm] bibighani p[G]a sakin siguro
 
 E||--1111---1111-----------11111-------0000||
 B||--1111---1111-----------11111-------3333||
 G||--2222---2222-----------11111-------0000||
 D||--3333---3333-----------33333-------0000||
 A||--3333---3333-----------33333-------2222||
 E||--1111---1111-----------11111-------3333||

kung ay[C]aw mo na ako letche lalong ayoko sayo
 
 E||--3333--3333-------------0000----0000----||
 B||--3333--3333-------------3333----3333----||
 G||--0000--0000-------------0000----0000----||
 D||--2222--2222-------------2222----2222----||
 A||--3333--3333-------------3333----3333----||
 E||-----------------------------------------||

alam m[F]o naman kung saan ang bahay ko b[Fm]aka sakaling mag bago ang [G]isip mo plss.
 
 E||--1111---1111--------------------11111-----------------------0--------||
 G||--2222---2222--------------------11111-----------------------0--------||
 A||--3333---3333--------------------33333-----------------------2--------||
 E||--1111---1111--------------------11111-----------------------3--------||

then refrain...
Adlib:
la[C]lalalala lalalalalala hu[G]uuwoah huuuuwoah
 
 E||--3333--------0000-------0000----0000----------||
 B||--3333--------3333-------3333----3333----------||
 G||--0000--------0000-------0000----0000----------||
 D||--2222--------2222-------0000----0000----------||
 A||--3333--------3333-------2222----2222----------||
 E||-------------------------3333----3333----------||

[C] [G] 
lalalalala lalalalalala hooowoah huuuuwoah
 
 E||--3333--------0000-------0000----0000----------||
 B||--3333--------3333-------3333----3333----------||
 G||--0000--------0000-------0000----0000----------||
 D||--2222--------2222-------0000----0000----------||
 A||--3333--------3333-------2222----2222----------||
 E||-------------------------3333----3333----------||

that's it...paki rate nalang poh...
tnx...^_^
add nyo din ako sa friendster=katerinoo@yahoo.com

Important: The song above is NOT stored on the Chordie server. The original song is hosted at www.guitartabs.cc. Chordie works as a search engine and provides on-the-fly formatting. Chordie does not index songs against artists'/composers' will. To remove this song please click here.

Text color:
Chord color:
Chord grids: 
Font size:    
Page size: 

A B C Em F F#m/D Fm G
Rate #1 of 6 versions

Login - add to songbook

SHARE PAGE  




You need to log in to post comments