Guitar Tabs, Chords and Lyrics
Songbooks are teporarily down. Dont panic. Working on recovering it. Dont save new songs in songbooks!


Home Outgrown  The Menzingers

Here is Home Outgrown, there are tabs at the bottom, enjoy
INTRO:
[B]Condescender, Condescender,
[B]Chemical [F#]splendour, [G#m]I surr[E]ender [B]a promise [F#]to my[E]self.
INTRO LEAD:
[B] [F#] [G#m] [E]  
[B] [F#] [E]  
VERSE:
[B]I know a snake, I know a [F#]charmer, I know a [G#m]selfish little [E]boy,
But I [B]wish that I [F#]knew my [E]friend,
[B]A neighbour is a [F#]stranger, and com[G#m]passion is an [E]option,
When your [B]frigid [F#]hearts settle [E]in.
CHORUS:
[B]Conde[F#]scender [G#m]last for[E]ever [B]come call [F#]off your [E]dogs,
[B]Chemical [F#]splendour, [G#m]I surr[E]ender a [B]promise [F#]to my[E]self, the old enemy.
INTERLUDE:
G#m B x2
BRIDGE:
I?m not [B]going home,
I?m not [G#m]going home,
Where [B]is my home?
Where [G#m]is my home?
I?m not [B]going home.
CHORUS:
[B]Conde[F#]scender [G#m]last for[E]ever [B]come call [F#]off your [E]dogs,
[B]Chemical [F#]splendour, [G#m]I surr[E]ender a [B]promise [F#]to my[E]self, the old ene[B]my.
My [G#m]heroes I have for[B]gotten them,
My [G#m]heroes maybe they [B]never were,
My [G#m]heroes I have for[B]gotten them,
My [G#m]heroes maybe they [B]never were,
I?m not [B]going home.
INTRO:
just play this a bunch
 
 e|------------|
 B|------------|
 G|-4-4-4-4----|
 D|-x-x-x-x----|
 A|-2-2-2-2----|
 E|------------|

INTRO LEAD:
[B] [F#] [G#m] [E] [B] [F#] [E]  
 
 e|-8---8---10---8---|-8---8---10---8---|-8---8---10---8---|-8---8---10---8--|
 B|---8---8----8---8-|---8---8----8---8-|---8---8----8---8-|---8---8----8---8|
 G|------------------|------------------|------------------|-----------------|
 D|------------------|------------------|------------------|-----------------|
 A|------------------|------------------|------------------|-----------------|
 E|------------------|------------------|------------------|-----------------|

INTERLUDE:
[G#m] [B]  
 
 e|---------------------------------|---------7-6-----------7-6---4-|
 B|---------------------------------|----4--------7-----4-------7---|
 G|-9-9-9-9-8-8-8-8-9-9-9-9-8-8-8-8-|-4-----4---------4---4---------|
 D|-x-x-x-x-x-x-x-x-x-x-x-x-x-x-x-x-|-------------------------------|
 A|-7-7-7-7-6-6-6-6-7-7-7-7-6-6-6-6-|-------------------------------|
 E|---------------------------------|-------------------------------|

2ND INTERLUDE:
[G#m] [B]  
 
 e|---------------------------------|----------------------------------|
 B|---------------------------------|----------------------------------|
 G|-9-9-9-9-8-8-8-8-9-9-9-9-8-8-8-8-|-11111111111111111111111111111111-|
 D|-x-x-x-x-x-x-x-x-x-x-x-x-x-x-x-x-|-x-x-x-x-x-x-x-x-x-x-x-x-x-x-x-x--|
 A|-7-7-7-7-6-6-6-6-7-7-7-7-6-6-6-6-|-9-9-9-9-9-9-9-9-9-9-9-9-9-9-9-9--|
 E|---------------------------------|----------------------------------|

play 3x 4th time: End
 
 e|---------7-6---|----------------|----|
 B|----4--------7-|----4---4-------|----|
 G|-4-----4-------|--4---4---6-4-6-|-4~-|
 D|---------------|----------------|----|
 A|---------------|----------------|----|
 E|---------------|----------------|----|


Important: The song above is NOT stored on the Chordie server. The original song is hosted at www.guitartabs.cc. Chordie works as a search engine and provides on-the-fly formatting. Chordie does not index songs against artists'/composers' will. To remove this song please click here.

Text color:
Chord color:
Chord grids: 
Font size:    
Page size: 

B E F# G#m
Rate #0 of 2 versions

Jango Player

Login - add to songbook

SHARE PAGE  



You need to log in to post comments