Guitar Tabs, Chords and Lyrics
Songbooks are teporarily down. Dont panic. Working on recovering it. Dont save new songs in songbooks!


Rivalries  The Menzingers

 
 -----------------------------------------------------------------------------

RIVALRIES - The Menzingers
 
 -----------------------------------------------------------------------------

Tabbed by: Mean Mr Mustard
Email: Gotchristo@comcast.net
Tuning: Standard
Fun song, and my favorite one off of this album. Enjoy, I included the leads at
the bottom, should be easy to follow.
VERSE: (with Intro lead)
[D]Im gonna walk to the edge of the world,
[(D)]Im gonna collect everything left thats s[Bm]catte[C#m]red,[D] [G]
[(D)]Maybe then I can mend your wounds,
[(D)]Maybe then I can mend mine too.[Bm] [C#m] [D] [G]
Because Im [A]running out of ex[G]cuses,
Because Im [A]running out of [G]time.
CHORUS: (with Chorus lead)
[D]Ill find my own way [Bm]home,
[D]and stumble into [A]another [G]New Year
VERSE: (with Verse lead)
[D]Im gonna get in fighting fit,
[(D)]Im gonna let my liver play [Bm]offens[C#m]e,[D] [G]
[D]But when captains choose their teams,
[(D)]Im always the last one on the [Bm]side line[C#m]s.[D] [G]
Because Im [A]running out of ex[G]cuses,
Because Im [A]running out of [G]time.
BRIDGE: (with Bridge lead)
To go [D]anywhere but b[Bm]ackwards
[D]Cause I cant wait for or live forever,
[Bm]No I cant wait for or live forever,
[G]Either.
CHORUS: (with Chorus lead)
[D]Ill find my own way [Bm]home,
[D]and stumble into [A]another [G]New Year.
[D]Im gonna get back all thats lost,
[(D)]Im gonna regain rightful intu[Bm]ition,[C#m] [D] [G]
[D]You said, Hey man Im on your side,
[(D)]but Im always waiting on your [Bm]side”.[C#m] [D] [G]
Because Im [A]running out of ex[G]cuses,
Because Im [A]running out of [G]time.
( Tab from: http://www.guitartabs.cc/tabs/t/the_menzingers/rivalries_tab.html )
OUTRO:
[D]When life falls apart Ill eat my [G]words,
[D]With insignias to award our failed ven[G]tures.
[D]When life falls apart Ill eat my [G]words,
[D]With insignias to award our failed ven[G]tures.
INTRO LEAD:
[G] [Bm] [C#m] [D] [G]  
 
 e|--------------|---|---------------------------------------------|
 B|---3--3--3--3-|---|---3---3---3----3---3----3----3---3---3---3--|
 G|--------------|x16|---------------------------------------------|
 D|-0--0--0--0---|---|------------------0---0-----0---0---0---0----|
 A|--------------|---|-2---2---4---4--------------2----------------|
 E|--------------|---|----------------------------3----------------|

CHORUS LEAD:
[D] [Bm]  
 
 e|----------------------------|--|----------------------------|
 B|----------------------------|--|-7--7--7--------------------|
 G|----7---9--7-----7---7-9-7--|x2|---------9--7----7---7-9-7--|
 D|-9----9--------9---9--------|--|---------------9---9--------|
 A|----------------------------|--|----------------------------|
 E|----------------------------|--|----------------------------|

*Now go back to that first riff over the D chord and then play:
[A] [G]  
 
 e|----------------------------------------------------------------|
 B|-1010101010101010101010101010108-8-8-8-8-8-8-8-7-7-7-7-7-7-7-7--|
 G|-7-7-7-7-7-7-7-7-7-7-7-7-7-7-7-7-7-7-7-7-7-7-7-7-7-7-7-7-7-7-7--|
 D|----------------------------------------------------------------|
 A|----------------------------------------------------------------|
 E|----------------------------------------------------------------|

BRIDGE LEAD:
[D] [Bm]  
 
 e|---------------------------------|--|----------------------------------|--|
 B|---------------------------------|--|----------------------------------|--|
 G|-----------------4-4-4-----------|x2|-------------2-2--------2-2-2-----|x2|
 D|-------5-5-5-7-7-------7-7-7-5-5-|--|-------4-4-4------------------4-4-|--|
 A|-5-5-5---------------------------|--|-2-2-2------------2-2-2-----------|--|
 E|---------------------------------|--|----------------------------------|--|

Play twice, then:
[G]  
 
 e|---------------------------------|--|
 B|---------------------------------|--|
 G|-------------7-7-------------7-7-|x2|
 D|-------5-5-5-----------5-5-5-----|--|
 A|-5-5-5-----------5-5-5-----------|--|
 E|---------------------------------|--|


Important: The song above is NOT stored on the Chordie server. The original song is hosted at www.guitartabs.cc. Chordie works as a search engine and provides on-the-fly formatting. Chordie does not index songs against artists'/composers' will. To remove this song please click here.

Text color:
Chord color:
Chord grids: 
Font size:    
Page size: 

A Bm C#m D G
Rate #1 of 3 versions

Jango Player

Login - add to songbook

SHARE PAGE  



You need to log in to post comments