Guitar Tabs, Chords and Lyrics
Login is temporarily disabled for some users. Do not panic. Will be back in an hour or two. DO NOT REREGISTER!!


The Obituaries  The Menzingers

Tuning: Half-Step Down
There were chords up here in the wrong key, this is how they play it on the album, and I
included tabs at the bottom, enjoy.
INTRO: (w/ lead) C Em Am x2
[C]C [Em]Em [Am]G x2
VERSE:
[C]We stumbled and stared at the [Em]carnival lights that [F]lit up New York [C]City,
From a [F]rooftop in [C]Brooklyn that was [G]covered in bad [Am]graffiti.
[C]And then I let a [Em]thousand splinters [F]pierce right through my [C]spoiled liver,
[F]Or what[C]ever that was left of [G]it.
LEAD PART:
C Em F C F C G x2
VERSE:
[C]'Cause I've cursed my lonely [Em]memory with [F]picture-perfect [C]imagery.
[F]Maybe I'm not [C]dying I'm just [G]living in decaying [Am]cities,
[C]But I'm still healthy, [Em]I'm still fine, [F]I've been spending [C]all my time
[F] rea[C]ding the obitu[G]aries.
INTERLUDE:
C G x3
CHORUS:
[C]But I will fuck this up, I fucking know it.
[F]I will fuck this up, I fucking know it.
[C]I will fuck this up, I fucking know it.
[F]I will fuck this up, I fucking know it.
BRIDGE:
[F]'Cause I[C] am the [G]shadow of the [Am]waxwing slain
[F]I felt[C] the [G]false azure from [Am]windowpanes
[F]I am[C] just [G]freaking out, yeah [Am]I'll be fine.[F]
CHORUS:
[C]But I will fuck this up, I fucking know it.
[F]I will fuck this up, I fucking know it.
[C]I will fuck this up, I fucking know it.
[F]I will fuck this up, I fucking know it.
End on C
( Tab from: http://www.guitartabs.cc/tabs/t/the_menzingers/the_obituaries_tab.html )
INTRO:
[C] [Em] [Am]  
 
 eb|--------------------------------------------------|
 Bb|-13-13-13-13-12-12-12-12-10-10-10-10-10-10-10-10--|
 Gb|-12-12-12-12-12-12-12-12-12-12-12-12-12-12-12-12--|
 Db|--------------------------------------------------|
 Ab|--------------------------------------------------|
 Eb|--------------------------------------------------|

[C] [Em] [Am]  
 
 eb|----------------------------------------------------|
 Bb|-13----13--1312----12----10----10----10-----10------|
 Gb|----12----------12----12----12-----12----12----12---|
 Db|----------------------------------------------------|
 Ab|----------------------------------------------------|
 Eb|----------------------------------------------------|

[C] [Em] [G]  
 
 eb|----------------------------------------------------|
 Bb|-13----13--1312----12----15-15-15-15-15/17-17-17-17-|
 Gb|----12----------12----12----------------------------|
 Db|----------------------------------------------------|
 Ab|----------------------------------------------------|
 Eb|----------------------------------------------------|

LEAD PART: x2
[C] [Em] [F] [C]  
 
 eb|---------------------------------------------------------|
 Bb|---------------------------------------------------------|
 Gb|-------------------------10---10-------------------------|
 Db|-10----10-12-14----12-14---------14-12---14----14-12-10--|
 Ab|---------------------------------------------------------|
 Eb|---------------------------------------------------------|

[F] [C] [G]  
 
 eb|----------------------------------------------------------------|----|
 Bb|----------------------------------------------------------------|----|
 Gb|-14----14-12-10---12----12-10----------------10--10--10---------|----|
 Db|------------------------------14----12---14------------14-12-14-|-10-|
 Ab|----------------------------------------------------------------|----|
 Eb|----------------------------------------------------------------|----|

INTERLUDE:
[C] [G] [C] [G] [C] [G]  
 
 eb|-----------------------------------------------|
 Bb|-----------------------------------------------|
 Gb|-10---9--7------10---9--7-------14----12--10---|
 Db|-x----x--x------x----x--x-------x-----x---x----|
 Ab|-8----7--5------8----7--5-------12----10--8----|
 Eb|-----------------------------------------------|


Important: The song above is NOT stored on the Chordie server. The original song is hosted at www.guitartabs.cc. Chordie works as a search engine and provides on-the-fly formatting. Chordie does not index songs against artists'/composers' will. To remove this song please click here.

Text color:
Chord color:
Chord grids: 
Font size:    
Page size: 

Am C Em F G
Rate #1 of 2 versions

Jango Player

Login - add to songbook

SHARE PAGE  




You need to log in to post comments