Guitar Tabs, Chords and Lyrics
Major upgrade!! After one year development the new version of Chordie is now online! Please give feedback.


Door to Hell  Toxik

originally tabbed by metalthrashingm
Gtr I (E A D G B E) - 'Guitar 1'
Gtr II (E A D G B E) - 'Guitar 2'
Gtr III (E A D G B E) - 'Clean Fill'
Gtr IV (E A D G B E) - 'Lead Fill'
Gtr V (E A D G B E) - 'Lead Fill 2'
0:00
Q=220
E5 N.C.
[4/4] Gtrs I, II
 
 |--------------------|-----------------------|
 |--------------------|-----------------------|
 |--------------------|---------2-5-4-2-------|
 |-2----------------2-|-4-4-4-5---------5-4-2-|
 |-2--------3-3-3-5---|-----------------------|
 |-0--0-3-5-----------|-----------------------|

E5 N.C.
[5/4]  
 
 |--------------------|----------------------------|
 |--------------------|----------------------------|
 |--------------------|---------2-[5]-[4]----------|
 |-2----------------2-|-4-4-4-5-----------[5]-[4]--|
 |-2--------3-3-3-5---|----------------------------|
 |-0--0-3-5-----------|----------------------------|

E5 N.C.
[4/4]  
 
 |--------------------|-----------------------|
 |--------------------|-----------------------|
 |--------------------|---------2-5-4-2-------|
 |-2----------------2-|-4-4-4-5---------5-4-2-|
 |-2--------3-3-3-5---|-----------------------|
 |-0--0-3-5-----------|-----------------------|

Q=200
E5 N.C.
 
 |--------------------|-----------------------------------------|
 |--------------------|-----------------------------------------|
 |--------------------|-----------------|
 |-2------------------|-4---------------------------------------|
 |-2--------3-3-3-5-7-|-----------------------------------------|
 |-0--0-3-5-----------|-----------------------------------------|

E5 N.C.
 
 |--------------------|-----------------------|
 |--------------------|-----------------------|
 |--------------------|---------2-5-4-2-------|
 |-2----------------2-|-4-4-4-5---------5-4-2-|
 |-2--------3-3-3-5---|-----------------------|
 |-0--0-3-5-----------|-----------------------|

E5 N.C.
[5/4]  
 
 |--------------------|-----------------------------|
 |--------------------|-----------------------------|
 |--------------------|---------2-[5]-[4]-----------|
 |-2----------------2-|-4-4-4-5-----------[5]-[4]---|
 |-2--------3-3-3-5---|-----------------------------|
 |-0--0-3-5-----------|-----------------------------|

E5 N.C. E5 N.C.
[4/4]  
 
 |--------------------|-----------------------|---------------------|
 |--------------------|-----------------------|---------------------|
 |--------------------|---------2-5-4-2-------|---------------------|
 |-2----------------2-|-4-4-4-5---------5-4-2-|-2----------------2--|
 |-2--------3-3-3-5---|-----------------------|-2--------3-3-3-5----|
 |-0--0-3-5-----------|-----------------------|-0--0-3-5------------|

13/8 4[G5]/4
\0.5/ \0.5/ \0.5/
 
 |-----------------------------|----------------------------|
 |-----------------------------|----------------------------|
 |---------2-[5]-[4]-----------|----------------------------|
 |-4-4-4-5-----------[5]-4-----|-5--(5)-----(5)-----(5)-----|
 |-------------------------4-5-|-3--(3)-----(3)-----(3)-----|
 |-----------------------------|-3--(3)-----(3)-----(3)-----|

\0.5/ \0.5/ \0.5/ \0.5/
 
 |---------------------------------|
 |---------------------------------|
 |---------------------------------|
 |-(5)-----(5)-----(5)-----(5)-----|
 |-(3)-----(3)-----(3)-----(3)-----|
 |-(3)-----(3)-----(3)-----(3)-----|

0:23
Q=180
N.C. D5 N.C. C5 D5
 
 PM------------------------------------------
 |-------------------------|------------------|
 |-------------------------|------------------|
 |-------------------------|------------------|
 |-----------------------7-|-----------5--7-7-|
 |-----------------------5-|-----------3--5-5-|
 |-0-0-0-0-0-0-0-0-0-0-0---|-0-0-0-0-0--------|

N.C. D5 N.C. F5 E5C5 E5
 
 ------------------------------------------|
 |-------------------------|------------------------|
 |-------------------------|------------------------|
 |-------------------------|------------------------|
 |-----------------------7-|-----------10-9----9\---|
 |-----------------------5-|------------8-7-10-7\---|
 |-0-0-0-0-0-0-0-0-0-0-0---|-0-0-0-0-0-------8------|

N.C. D5 N.C. C5 D5
 
 PM------------------------------------------
 |-------------------------|------------------|
 |-------------------------|------------------|
 |-------------------------|------------------|
 |-----------------------7-|-----------5--7-7-|
 |-----------------------5-|-----------3--5-5-|
 |-0-0-0-0-0-0-0-0-0-0-0---|-0-0-0-0-0--------|

N.C. D5 N.C.
 
 -----------------------------------|
 |-------------------------|----------------------------|
 |-------------------------|----------------------------|
 |-------------------------|-----------9-7-5------------|
 |-----------------------7-|-----------------9-7-5------|
 |-----------------------5-|-----------------------9-7--|
 |-0-0-0-0-0-0-0-0-0-0-0---|-0-0-0-0-0------------------|

Q
N.C.
Gtrs I, II
 
 ||--------------|--------------|
 ||o-------------|--------------|
 ||--------------|--------------|
 ||------7-----8-|-----9-----10-|
 ||o---5-----6---|---7-----8----|
 ||--5-----6-----|-7-----8------|

|
| Gtr III
 
 ||--------------|--------------|
 ||o-------------|--------------|
 ||--------------|--------------|
 ||------7-----8-|-----9-----10-|
 ||o---5-----6---|---7-----8----|
 ||--5-----6-----|-7-----8------|

=200
EbE5N.C. D5E5N.C.
 
 PM----------------| PM----------------|
 |-------------------------|---------------------------||
 |-------------------------|--------------------------o||
 |-------------------------|---------------------------||
 |-7S9---------------------|-7S9-----------------------||
 |-5S7---------------------|-5S7----------------------o||
 |-----0-0-0-0-0-0-0-0-0-0-|-----0-0-0-0-0-0-0-0-0-0---||

|
 
 |-------------------------|---------------------------||
 |-------------------------|--------------------------o||
 |-------------------------|---------------------------||
 |-------------------------|---------------------------||
 |-------------------------|--------------------------o||
 |-------------------------|---------------------------||

Q=180 Q
[B5]Gtr[C5]s I[C#5D5], II[G#5G5] [F#5F5]
 
 |-------------|-------------|
 |-------------|-------------|
 |-------------|-------------|
 |-4--5--6--7--|-------------|
 |-2--3--4--5--|-6--5--4--3--|
 |-------------|-4--3--2--1--|

=200
D5E5N.C. D5E5N.C.
 
 PM----------------| PM----------------|
 |-------------------------|--------------------------|
 |-------------------------|--------------------------|
 |-------------------------|--------------------------|
 |-7S9---------------------|-7S9----------------------|
 |-5S7---------------------|-5S7----------------------|
 |-----0-0-0-0-0-0-0-0-0-0-|-----0-0-0-0-0-0-0-0-0-0--|

Q=180
[B5]Gtr[C5]s I[C#5D5], II[G#5G5] [F#5F5] [C5/G]
 
 |-------------|-------------|-----------------|-------------------|
 |-------------|-------------|-----------------|-------------------|
 |-------------|-------------|-----------------|-------------------|
 |-4--5--6--7--|-------------|--5--------------|--(5)--------------|
 |-2--3--4--5--|-6--5--4--3--|--3--------------|--(3)--------------|
 |-------------|-4--3--2--1--|--3--------------|--(3)--------------|

|
| Gtr IV
| \1 \1 \1
 
 |-------------|-------------|-----------------|-------------------|
 |-------------|-------------|-[6]----([6])----|-([6])----([6])----|
 |-------------|-------------|-----------------|-------------------|
 |-------------|-------------|-----------------|-------------------|
 |-------------|-------------|-----------------|-------------------|
 |-------------|-------------|-----------------|-------------------|

0:54
Q=200
E5 N.C.
 
 |--------------------|-----------------------|
 |--------------------|-----------------------|
 |--------------------|---------2-5-4-2-------|
 |-2----------------2-|-4-4-4-5---------5-4-2-|
 |-2--------3-3-3-5---|-----------------------|
 |-0--0-3-5-----------|-----------------------|

E5 N.C.
[5/4]  
 
 |--------------------|-----------------------------|
 |--------------------|-----------------------------|
 |--------------------|---------2-[5]-[4]-----------|
 |-2----------------2-|-4-4-4-5-----------[5]-[4]---|
 |-2--------3-3-3-5---|-----------------------------|
 |-0--0-3-5-----------|-----------------------------|

E5 N.C. E5 N.C.
[4/4]  
 
 |--------------------|-----------------------|---------------------|
 |--------------------|-----------------------|---------------------|
 |--------------------|---------2-5-4-2-------|---------------------|
 |-2----------------2-|-4-4-4-5---------5-4-2-|-2----------------2--|
 |-2--------3-3-3-5---|-----------------------|-2--------3-3-3-5----|
 |-0--0-3-5-----------|-----------------------|-0--0-3-5------------|

13/8 4[G5]/4
Gtrs I, II
 
 |-------------------------------|------------------------|
 |-------------------------------|------------------------|
 |---------2-[5]-[4]-------------|------------------------|
 |-4-4-4-5-----------[5]-4-------|--5---------------------|
 |-------------------------4-5---|--3---------------------|
 |-------------------------------|--3---------------------|

|
| Gtr IV
| \1/ \1/ \1/
 
 |-------------------------------|------------------------|
 |-------------------------------|------------------------|
 |-------------------------------|-[7]--(7)---(7)---(7)---|
 |-------------------------------|------------------------|
 |-------------------------------|------------------------|
 |-------------------------------|------------------------|

|
| Gtr V
 
 |-------------------------------|------------------------|
 |-------------------------------|------------------------|
 |-------------------------------|------------------------|
 |-------------------------------|------------------------|
 |-------------------------------|------------------------|
 |-------------------------------|------------------------|
 |-------------------------------------------------|
 |-------------------------------------------------|
 |-------------------------------------------------|
 |-(5)---------------------------------------------|
 |-(3)---------------------------------------------|
 |-(3)---------------------------------------------|

|
| \1/ \1/ \1/
 
 |-------------------------------------------------|
 |-------------------------------------------------|
 |-(7)-----------(7)-----------(7)-----------(7)---|
 |-------------------------------------------------|
 |-------------------------------------------------|
 |-------------------------------------------------|

|
| ~~~
 
 |------19-17-15-----------------------------------|
 |---------------19---17---------------------------|
 |-----------------------16------------------------|
 |--------------------------19-17---16-------------|
 |-------------------------------------19-17-------|
 |-------------------------------------------19----|

1:08
Q=180
N.C. D5 N.C. C5 D5
Gtrs I, II
 
 PM------------------------------------------
 |-------------------------|------------------|
 |-------------------------|------------------|
 |-------------------------|------------------|
 |-----------------------7-|-----------5--7-7-|
 |-----------------------5-|-----------3--5-5-|
 |-0-0-0-0-0-0-0-0-0-0-0---|-0-0-0-0-0--------|

N.C. D5 N.C. F5 E5C5 E5
 
 ------------------------------------------|
 |-------------------------|------------------------|
 |-------------------------|------------------------|
 |-------------------------|------------------------|
 |-----------------------7-|-----------10-9----9\---|
 |-----------------------5-|------------8-7-10-7\---|
 |-0-0-0-0-0-0-0-0-0-0-0---|-0-0-0-0-0-------8------|

N.C. D5 N.C. C5 D5
 
 PM------------------------------------------
 |-------------------------|------------------|
 |-------------------------|------------------|
 |-------------------------|------------------|
 |-----------------------7-|-----------5--7-7-|
 |-----------------------5-|-----------3--5-5-|
 |-0-0-0-0-0-0-0-0-0-0-0---|-0-0-0-0-0--------|

N.C. D5 N.C.
 
 -----------------------------------|
 |-------------------------|----------------------------|
 |-------------------------|----------------------------|
 |-------------------------|-----------9-7-5------------|
 |-----------------------7-|-----------------7-9-7-5----|
 |-----------------------5-|-------------------------7--|
 |-0-0-0-0-0-0-0-0-0-0-0---|-0-0-0-0-0------------------|

Q
Gtrs I, II
 
 ||--------------|--------------|
 ||o-------------|--------------|
 ||--------------|--------------|
 ||------7-----8-|-----9-----10-|
 ||o---5-----6---|---7-----8----|
 ||--5-----6-----|-7-----8------|

|
| Gtr III
 
 ||--------------|--------------|
 ||o-------------|--------------|
 ||--------------|--------------|
 ||------7-----8-|-----9-----10-|
 ||o---5-----6---|---7-----8----|
 ||--5-----6-----|-7-----8------|

=200
D5E5N.C. D5E5N.C.
 
 PM----------------| PM----------------|
 |-------------------------|---------------------------||
 |-------------------------|--------------------------o||
 |-------------------------|---------------------------||
 |-7S9---------------------|-7S9-----------------------||
 |-5S7---------------------|-5S7----------------------o||
 |-----0-0-0-0-0-0-0-0-0-0-|-----0-0-0-0-0-0-0-0-0-0---||

|
 
 |-------------------------|---------------------------||
 |-------------------------|--------------------------o||
 |-------------------------|---------------------------||
 |-------------------------|---------------------------||
 |-------------------------|--------------------------o||
 |-------------------------|---------------------------||

Q=180 Q
[B5]Gtr[C5]s I[C#5D5], II[G#5G5] [F#5F5]
 
 |-------------|-------------|
 |-------------|-------------|
 |-------------|-------------|
 |-4--5--6--7--|-------------|
 |-2--3--4--5--|-6--5--4--3--|
 |-------------|-4--3--2--1--|

=200
D5E5N.C. D5E5N.C.
 
 PM----------------| PM----------------|
 |-------------------------|--------------------------|
 |-------------------------|--------------------------|
 |-------------------------|--------------------------|
 |-7S9---------------------|-7S9----------------------|
 |-5S7---------------------|-5S7----------------------|
 |-----0-0-0-0-0-0-0-0-0-0-|-----0-0-0-0-0-0-0-0-0-0--|

[ Tab from: bttp://www.guitartabs.cc/tabs/t/toxik/door_to_bell_tab.btml ] 
Q=180
[B5]Gtr[C5]s I[C#5D5], II[G#5G5] [F#5F5] [G5]
 
 |-------------|-------------|-----------------|-------------------|
 |-------------|-------------|-----------------|-------------------|
 |-------------|-------------|-----------------|-------------------|
 |-4--5--6--7--|-------------|-----------------|-------------------|
 |-2--3--4--5--|-6--5--4--3--|--5--------------|--(5)--------------|
 |-------------|-4--3--2--1--|--3--------------|--(3)--------------|

|
| Gtr IV
| \1 \1 \1
 
 |-------------|-------------|-----------------|-------------------|
 |-------------|-------------|-[6]----([6])----|-([6])----([6])----|
 |-------------|-------------|-----------------|-------------------|
 |-------------|-------------|-----------------|-------------------|
 |-------------|-------------|-----------------|-------------------|
 |-------------|-------------|-----------------|-------------------|

1:39
Q=200
E5 N.C.
Gtrs I, II
 
 |--------------------|-----------------------|
 |--------------------|-----------------------|
 |--------------------|---------2-5-4-2-------|
 |-2----------------2-|-4-4-4-5---------5-4-2-|
 |-2--------3-3-3-5---|-----------------------|
 |-0--0-3-5-----------|-----------------------|

E5 N.C.
[5/4]  
 
 |--------------------|-----------------------------|
 |--------------------|-----------------------------|
 |--------------------|-----------[5]-[4]-----------|
 |-2----------------2-|-4-4-4-5-7---------[5]-[4]---|
 |-2--------3-3-3-5---|-----------------------------|
 |-0--0-3-5-----------|-----------------------------|

E5 N.C. E5 N.C.
[4/4]  
 
 |--------------------|-----------------------|--------------------|---------|
 |--------------------|-----------------------|--------------------|---------|
 |--------------------|---------2-5-4-2-------|--------------------|---------|
 |-2----------------2-|-4-4-4-5---------5-4-2-|-2----------------2-|-4-5-----|
 |-2--------3-3-3-5---|-----------------------|-2--------3-3-3-5---|---------|
 |-0--0-3-5-----------|-----------------------|-0--0-3-5-----------|---------|

1:50
E5 F#5 E5 F#5 A5 N.C.
 
 |---------|----------|---------|-----------|-----------|-------------|
 |---------|----------|---------|-----------|-----------|-------------|
 |---------|----------|---------|-----------|-----------|-------------|
 |---------|-2--------|---------|-4------4--|-2------4--|-7-----------|
 |---------|-2--------|---------|-4------4--|-2------4--|-7------8\---|
 |---------|-0--------|---------|-2------2--|-0------2--|-5-----------|

1:57
Q=130 Q
N.C.
12/8
 
 ---------------------------------------------------------
 |-------------------------------------------------------|
 |-------------------------------------------------------|
 |-------------------------------------------------------|
 |-------------------------10-10-10-10-10-10-------------|
 |-------------8-8-8-8-8-8-------------------8-8-8-8-8-8-|
 |-6-6-6-6-6-6-------------------------------------------|

=200
[4/4]  
 
 -----------------------|TP
 |----------|----------|-------|
 |----------|----------|-------|
 |----------|----------|-------|
 |----------|----------|-------|
 |-8--------|-7--------|-10----|
 |----------|----------|-------|

Q=130 Q
12/8
 
 |-------------------------------------------------------|
 |-------------------------------------------------------|
 |-------------------------------------------------------|
 |-------------------------10-10-10-10-10-10-------------|
 |-------------8-8-8-8-8-8-------------------8-8-8-8-8-8-|
 |-6-6-6-6-6-6-------------------------------------------|

=200
[F5/C] [E5/B] [A5/E]  
[4/4]  
 
 |-------------|-----------|------------|
 |-------------|-----------|------------|
 |-------------|-----------|-8----------|
 |-10-------10-|-9------9--|-6------6\--|
 |--8--------8-|-7------7--|------------|
 |-------------|-----------|------------|

Q=130 Q
12/8
 
 ---------------------------------------------------------
 |-------------------------------------------------------|
 |-------------------------------------------------------|
 |-------------------------------------------------------|
 |-------------------------10-10-10-10-10-10-------------|
 |-------------8-8-8-8-8-8-------------------8-8-8-8-8-8-|
 |-6-6-6-6-6-6-------------------------------------------|

=200
[4/4]  
 
 -----------------------|TP
 |----------|----------|-------|
 |----------|----------|-------|
 |----------|----------|-------|
 |----------|----------|-------|
 |-8--------|-7--------|-10----|
 |----------|----------|-------|

Q=130 Q=180
12/8 4[F5/C]/4
 
 |----------------------------------------------------|--------------|
 |----------------------------------------------------|--------------|
 |----------------------------------------------------|--------------|
 |-------------------------10-10-10-10-10-10-------10-|-10-----10----|
 |-------------8-8-8-8-8-8-------------------8-8-8--8-|--8--8--------|
 |-6-6-6-6-6-6----------------------------------------|--8-----------|

N.C. F5
 
 |-----------------------|----------|-------|
 |-----------------------|----------|-------|
 |-----------------------|----------|-------|
 |-------------5---------|-3--------|-3-----|
 |-------5-7-8---8-7-5\--|-3--------|-3-----|
 |-5-7-8-----------------|-1--------|-1-----|

2:24
Q=200
E5 N.C.
 
 ||---------------------|-----------------------|
 ||o--------------------|-----------------------|
 ||---------------------|---------2-5-4-2-------|
 ||--2----------------2-|-4-4-4-5---------5-4-2-|
 ||o-2--------3-3-3-5---|-----------------------|
 ||--0--0-3-5-----------|-----------------------|

E5 N.C.
[5/4]  
 
 |--------------------|-----------------------------||
 |--------------------|----------------------------o||
 |--------------------|---------2-[5]-[4]-----------||
 |-2----------------2-|-4-4-4-5-----------[5]-[4]---||
 |-2--------3-3-3-5---|----------------------------o||
 |-0--0-3-5-----------|-----------------------------||

E5 N.C.
[4/4]  
 
 |--------------------|-----------7-5-3-------|
 |--------------------|-----------------7-5-3-|
 |--------------------|---------2-------------|
 |-2----------------2-|-4-4-4-5---------------|
 |-2--------3-3-3-5---|-----------------------|
 |-0--0-3-5-----------|-----------------------|

E5 N.C.
[5/4]  
 
 |--------------------|----------------------------|
 |--------------------|----------------------------|
 |--------------------|---------2-[5]-[4]----------|
 |-2----------------2-|-4-4-4-5-----------[5]-[4]--|
 |-2--------3-3-3-5---|----------------------------|
 |-0--0-3-5-----------|----------------------------|

E5 N.C. E5 N.C.
[4/4]  
 
 |--------------------|-----------7-5-3-------|---------------------|
 |--------------------|-----------------7-5-3-|---------------------|
 |--------------------|---------2-------------|---------------------|
 |-2----------------2-|-4-4-4-5---------------|-2----------------2--|
 |-2--------3-3-3-5---|-----------------------|-2--------3-3-3-5----|
 |-0--0-3-5-----------|-----------------------|-0--0-3-5------------|

13/8
Gtrs I, II
 
 |-------------------------------|
 |-------------------------------|
 |---------2-[5]-[4]-------------|
 |-4-4-4-5-----------[5]-4-------|
 |-------------------------4-5---|
 |-------------------------------|

|
| Gtr IV
 
 |-------------------------------|
 |-------------------------------|
 |-------------------------------|
 |-------------------------------|
 |-------------------------------|
 |-------------------------------|

[C5/G]  
[4/4]  
 
 |------------------------|------------------------|
 |------------------------|------------------------|
 |------------------------|------------------------|
 |--5---------------------|-(5)--------------------|
 |--3---------------------|-(3)--------------------|
 |--3---------------------|-(3)--------------------|

|
| \1/ \1/ \1/ \1/ \1/ \1/
 
 |------------------------|------------------------|
 |------------------------|------------------------|
 |-[7]--(7)---(7)---(7)---|-(7)---(7)---(7)---(7)--|
 |------------------------|------------------------|
 |------------------------|------------------------|
 |------------------------|------------------------|

2:47
Q=180
N.C. D5 N.C. C5 D5
Gtrs I, II
 
 PM------------------------------------------
 |-------------------------|------------------|
 |-------------------------|------------------|
 |-------------------------|------------------|
 |-----------------------7-|-----------5--7-7-|
 |-----------------------5-|-----------3--5-5-|
 |-0-0-0-0-0-0-0-0-0-0-0---|-0-0-0-0-0--------|

N.C. D5 N.C. F5 E5C5 E5
 
 ------------------------------------------|
 |-------------------------|------------------------|
 |-------------------------|------------------------|
 |-------------------------|------------------------|
 |-----------------------7-|-----------10-9----9\---|
 |-----------------------5-|------------8-7-10-7\---|
 |-0-0-0-0-0-0-0-0-0-0-0---|-0-0-0-0-0-------8------|

N.C. D5 N.C. C5 D5
 
 PM------------------------------------------
 |-------------------------|------------------|
 |-------------------------|------------------|
 |-------------------------|------------------|
 |-----------------------7-|-----------5--7-7-|
 |-----------------------5-|-----------3--5-5-|
 |-0-0-0-0-0-0-0-0-0-0-0---|-0-0-0-0-0--------|

N.C. D5 N.C.
 
 -----------------------------------|
 |-------------------------|----------------------------|
 |-------------------------|----------------------------|
 |-------------------------|-----------9-7-5------------|
 |-----------------------7-|-----------------9-7-5------|
 |-----------------------5-|-----------------------9-7--|
 |-0-0-0-0-0-0-0-0-0-0-0---|-0-0-0-0-0------------------|

Q
Gtrs I, II
 
 ||--------------|--------------|
 ||o-------------|--------------|
 ||--------------|--------------|
 ||------7-----8-|-----9-----10-|
 ||o---5-----6---|---7-----8----|
 ||--5-----6-----|-7-----8------|

|
| Gtr III
 
 ||--------------|--------------|
 ||o-------------|--------------|
 ||--------------|--------------|
 ||------7-----8-|-----9-----10-|
 ||o---5-----6---|---7-----8----|
 ||--5-----6-----|-7-----8------|

=200
D5E5N.C. D5E5N.C.
 
 PM----------------| PM----------------|
 |-------------------------|---------------------------||
 |-------------------------|--------------------------o||
 |-------------------------|---------------------------||
 |-7S9---------------------|-7S9-----------------------||
 |-5S7---------------------|-5S7----------------------o||
 |-----0-0-0-0-0-0-0-0-0-0-|-----0-0-0-0-0-0-0-0-0-0---||

|
 
 |-------------------------|---------------------------||
 |-------------------------|--------------------------o||
 |-------------------------|---------------------------||
 |-------------------------|---------------------------||
 |-------------------------|--------------------------o||
 |-------------------------|---------------------------||

Q=180 Q
[B5]Gtr[C5]s I[C#5D5], II[G#5G5] [F#5F5]
 
 |-------------|-------------|
 |-------------|-------------|
 |-------------|-------------|
 |-4--5--6--7--|-------------|
 |-2--3--4--5--|-6--5--4--3--|
 |-------------|-4--3--2--1--|

=200
D5E5N.C. D5E5N.C.
 
 PM----------------| PM----------------|
 |-------------------------|--------------------------|
 |-------------------------|--------------------------|
 |-------------------------|--------------------------|
 |-7S9---------------------|-7S9----------------------|
 |-5S7---------------------|-5S7----------------------|
 |-----0-0-0-0-0-0-0-0-0-0-|-----0-0-0-0-0-0-0-0-0-0--|

[B5] [C5] [C#5D5] [G#5G5] [F#5F5] [C5/G]  
 
 |-------------|-------------|-----------------|-------------------|
 |-------------|-------------|-----------------|-------------------|
 |-------------|-------------|-----------------|-------------------|
 |-4--5--6--7--|-------------|--5--------------|--(5)--------------|
 |-2--3--4--5--|-6--5--4--3--|--3--------------|--(3)--------------|
 |-------------|-4--3--2--1--|--3--------------|--(3)--------------|

|
| Gtr IV
| \1 \1 \1
 
 |-------------|-------------|-----------------|-------------------|
 |-------------|-------------|-[6]----([6])----|-([6])----([6])----|
 |-------------|-------------|-----------------|-------------------|
 |-------------|-------------|-----------------|-------------------|
 |-------------|-------------|-----------------|-------------------|
 |-------------|-------------|-----------------|-------------------|

3:19
Q=180
E5EbN.EbD5N.D5 C#N.C#C5N.C.G#5 N.E5EbN.EbD5N.D5 C#N.C#C5N.C.
Gtr I
PM PM PM PM PM| PM PM PM PM ~~~~~
 
 ||------------------|----------------|-----------------|-----------------||
 ||o-----------------|----------------|-----------------|----------------o||
 ||------------------|----------------|-----------------|-----------------||
 ||----9-8---8-7---7-|-6---6-5--------|---9-8---8-7---7-|-6---6-5---------||
 ||o---7-6---6-5---5-|-4---4-3-----6--|---7-6---6-5---5-|-4---4-3--------o||
 ||--0-----0-----0---|---0-----0-0-4--|-0-----0-----0---|---0-----3--3----||

|
| Gtr II
| PM PM PM PM PM| PM PM PM PM ~~~~~
 
 ||------------------|----------------|-----------------|-----------------||
 ||o-----------------|----------------|-----------------|----------------o||
 ||------------------|----------------|-----------------|-----------------||
 ||----9-8---8-7---7-|-6---6-5--------|---9-8---8-7---7-|-6---6-5-5--5----||
 ||o---7-6---6-5---5-|-4---4-3-----6--|---7-6---6-5---5-|-4---4-3--------o||
 ||--0-----0-----0---|---0-----0-0-4--|-0-----0-----0---|---0-------------||

N.E5EbN.EbD5N.D5 C#N.C#C5N.C.G#5 N.E5EbN.EbD5N.D5 C#N.C#C5N.C.
PM PM PM PM PM| PM PM PM PM ~~~~~
4x
 
 ||------------------|----------------|-----------------|-----------------||
 ||o-----------------|----------------|-----------------|----------------o||
 ||------------------|----------------|-----------------|-----------------||
 ||----9-8---8-7---7-|-6---6-5--------|---9-8---8-7---7-|-6---6-5---------||
 ||o---7-6---6-5---5-|-4---4-3-----6--|---7-6---6-5---5-|-4---4-3--------o||
 ||--0-----0-----0---|---0-----0-0-4--|-0-----0-----0---|---0-----3--3----||

|
| PM PM PM PM PM| PM PM PM PM ~~~~~
| 4x
 
 ||------------------|----------------|-----------------|-----------------||
 ||o-----------------|----------------|-----------------|----------------o||
 ||----9-8---8-7---7-|-6---6-5--------|---9-8---8-7---7-|-6---6-5---------||
 ||----7-6---6-5---5-|-4---4-3--------|---7-6---6-5---5-|-4---4-3-5--5----||
 ||o-----------------|-------------6--|-----------------|----------------o||
 ||--0-----0-----0---|---0-----0-0-4--|-0-----0-----0---|---0-------------||

Duration Legend
 
 ---------------

W - whole; H - half; Q - quarter; E - 8th; S - 16th;
T - 32nd; X - 64th; a - acciaccatura
+ - note tied to previous; . - note dotted; .. - note double dotted
Uncapitalized letters represent notes that are staccato (1/2 duration)
Irregular groupings are notated above the duration line
Duration letters will always appear directly above the note/fret number it
represents the duration for. Duration letters with no fret number below them
represent rests. Multi-bar rests are notated in the form Wxn, where n is the
number of bars to rest for. Low melody durations appear below the staff
Tablature Legend
 
 ----------------

h - hammer-on
p - pull-off
b - bend
pb - pre-bend
r - bend release (if no number after the r, then release immediately)
/ - slide into or out of (from/to "nowhere")
s - legato slide
S - shift slide
- natural harmonic
[n] - artificial harmonic
n(n) - tapped harmonic
~ - vibrato
tr - trill
T - tap
TP - trem. picking
PM - palm muting
n/ - tremolo bar dip; n = amount to dip
n - tremolo bar down
n/ - tremolo bar up
/n - tremolo bar inverted dip
= - hold bend; also acts as connecting device for hammers/pulls
- volume swell (louder/softer)
x - on rhythm slash represents muted slash
o - on rhythm slash represents single note slash
Misc Legend
 
 -----------

| - bar
|| - double bar
||o - repeat start
o|| - repeat end
*| - double bar (ending)
: - bar (freetime)
$ - Segno
& - Coda
Tempo markers - = BPM(8/16=s8/s16),
where s8 = swing 8ths, s16 = swing 16ths

Important: The song above is NOT stored on the Chordie server. The original song is hosted at www.guitartabs.cc. Chordie works as a search engine and provides on-the-fly formatting. Chordie does not index songs against artists'/composers' will. To remove this song please click here.

Text color:
Chord color:
Chord grids: 
Font size:    
Page size: 

A5/E B5 C5 C5/G E5/B F5/C G5
Rate #1 of 3 versions

Jango Player

Login - add to songbook

SHARE PAGE  




You need to log in to post comments