Guitar Tabs, Chords and Lyrics
Update 25:10. 13:00. Site is back up running again. Songbooks are recovered. Woring on getting search back up..


Shackled   Vertical Horizon

 
 Eb-|------------------|---------------------------------|-
 Bb-|------5-x-x-5/7---|---------------------------------|-
 Gb-|------5-x-x-5/7------|---------------------------------|-
 Db-|--0---5-x-x-5/7------|--0-0-3-3-3-3-2-2-2-2---2p0---0--|-
 Ab-|--0------------------|--0-0-3-3-3-3-3-3-3-3-------3----|-
 Db-|--0------------------|--0-0-3-3-3-3-3-3-3-3------------|-

 


 


 


 RIFF B


 


 

 
 Eb-|--0--x---0--0--0-0--|-----------------------|-
 Bb-|--1--x---1--1--1-1--|-------------1/3--3-3--|-
 Gb-|--4--x---4--4--4-4--|-------------0/0--0-0--|-
 Db-|--2--x---2--2--2-2--|--5--5-5-5---2/4--4-4--|-
 Ab-|--0--x---0--0--0-0--|--5--5-5-5---3/5--5-5--|-
 Db-|--------------------|--5--5-5-5-------------|-

 


 


 


 RIFF C


 


 

 
 Eb-|-----------------|-------------------|------------------|-----------------------|-
 Bb-|-----------------|-------------------|------------------|-----------------------|-
 Gb-|-----------------|-------------------|------------------|-----------------------|-
 Db-|--5-x--5--5-5-5--|--5-x--5--5/7\5----|--5--5--5--5-5-5--|--5-5-5-5-55-5--555-5--|-
 Ab-|--3-x--3--3-3-3--|--3-x--3-----------|--3--3--3--3-3-3--|--5-5-5-5-55-5--555-5--|-
 Db-|--3-x--3--3-3-3--|--3-x--3--------0--|--3--3--3--3-3-3--|--5-5-5-5-55-5--555-5--|-

 


 


 


 RIFF D PLAY SECOND TIME AROUND


 [/]  

 
 Eb-|--0---0---0(0)--|-------------|-
 Bb-|--3---3---3(3)--|-------------|-
 Gb-|--0---0---0(0)--|-------------|-
 Db-|--4---4---4(4)--|--2---2---2--|- USE DISTORTION
 Ab-|--5---5---5(5)--|--3---3---3--|-
 Db-|----------------|--3---3---3--|-

 


 


 RIFF E


 PLAY SECOND TIME


 

 
 Eb-|--0---0---0--|----------------------/-----|-
 Bb-|--1---1---1--|-----------------(6h8p6h8)--|-
 Gb-|--4---4---4--|----------------------------|-
 Db-|--2---2---2--|--5---5---(5)---------------|-
 Ab-|--0---0---0--|--5---5---(5)---------------|-
 Db-|-------------|--5---5---(5)---------------|-

 


 \


 DON'T PLAY SECOND TIME


 


 RIFF F


 [ Tab from: bttp://www.guitartabs.cc/tabs/v/vertical_borizon/sbackled_tab_ver_5.btml ] 


 

 
 Eb-|-------------|-------------------|-
 Bb-|-------------|-------------------|-
 Gb-|-------------|-------------------|-
 Db-|--5---5---5--|--5-5-5-5-5-5-5-5--|-
 Ab-|--3---3---3--|--5-5-5-5-5-5-5-5--|-
 Db-|--3---3---3--|--5-5-5-5-5-5-5-5--|-

 


 


 


 RIFF G


 


 

 
 Eb-|-------------|-------------|-----------------|-
 Bb-|-------------|-------------|-----------------|-
 Gb-|-------------|-------------|-----------------|-
 Db-|--5---5---5--|--5---5---5--|--5---5---5---5--|-
 Ab-|--3---3---3--|--3---3---3--|--5---5---5---5--|-
 Db-|--3---3---3--|--3---3---3--|--5---5---5---5--|-

 


 


 


 RIFF H


 


 

 
 Eb-|----------------|-
 Bb-|----------------|-
 Gb-|----------------|-
 Db-|--5-5------5-5--|-
 Ab-|--5-5------5-5--|-
 Db-|--5-5------5-5--|-

 


 


 


 RIFF I


 


 

 
 Eb-|----------------|-
 Bb-|----------------|-
 Gb-|--0~~~~~~~~~~~--|-
 Db-|----------------|-
 Ab-|----------------|-
 Db-|----------------|-


Important: The song above is NOT stored on the Chordie server. The original song is hosted at www.guitartabs.cc. Chordie works as a search engine and provides on-the-fly formatting. Chordie does not index songs against artists'/composers' will. To remove this song please click here.

This song is displayed as text-only. Transposing and tuning is only available for chordpro-songs.
Rate #5 of 5 versions

Jango Player

Login - add to songbook

SHARE PAGE  



You need to log in to post comments