Guitar Tabs, Chords and Lyrics
Server problems seems to be fixed. Chordie has been experiencing problems with songs disappearing. These issues now seems to be fixed, but still verifying the fix. If you find anything strange, please email admin@chordie.com.


Alejandro  WarCry

Alejandro
Transcribed by rokero13
Warcry
Bajo
W W W
 
 G||-------------------|-------------------|-------------------|
 D||-------------------|-------------------|-------------------|
 A||-------------------|-------------------|-------------------|
 E||--7----------------|--3----------------|--7----------------|

W W H. Q
 
 -------------------|-------------------|--------------------|
 -------------------|-------------------|--------------------|
 -------------------|-------------------|--------------------|
 --0----------------|--3----------------|--5------------6----|

W W W
 
 -------------------|-------------------|-------------------|
 -------------------|-------------------|-------------------|
 -------------------|-------------------|-------------------|
 --7----------------|--L----------------|--7----------------|

S S S S E E H W S S S S E E H
 
 -------------------------|-------------------|-------------------------|
 -------------------------|-------------------|-------------------------|
 -------------------------|-------------------|-------------------------|
 --3-3-3-3-3--------------|--7----------------|--0-0-0-0-0--------------|

W H. Q W
 
 -------------------|--------------------|-------------------|
 -------------------|--------------------|-------------------|
 -------------------|--------------------|-------------------|
 --3----------------|--5------------6----|--7----------------|

W W H. Q
 
 -------------------|-------------------|--------------------|
 -------------------|-------------------|--------------------|
 -------------------|-------------------|--------------------|
 --L----------------|--3----------------|--5------------6----|

W W E Q. E Q.
 
 -------------------|-------------------|----------------------|
 -------------------|-------------------|----------------------|
 -------------------|-------------------|----------------------|
 --7----------------|--L----------------|--5---------2---------|

S S S S S S S S S S S S S S S S S S S S S S S S S S S S S S S S
 
 ----------------------------------|----------------------------------|
 ----------------------------------|----------------------------------|
 ----------------------------------|----------------------------------|
 --7-7-7-7-7-7-7-7-7-7-7-7-7-7-7-7-|--3-3-3-3-3-3-3-3-3-3-3-3-3-3-3-3-|

S S S S S S S S S S S S S S S S S S S S S S S S S S S S S S S S
 
 ----------------------------------|----------------------------------|
 ----------------------------------|----------------------------------|
 ----------------------------------|----------------------------------|
 --7-7-7-7-7-7-7-7-7-7-7-7-7-7-7-7-|--0-0-0-0-0-0-0-0-0-0-0-0-0-0-0-0-|

S S S S S S S S S S S S S S S S S S S S S S S S S S S S S S S S
 
 ----------------------------------|----------------------------------|
 ----------------------------------|----------------------------------|
 ----------------------------------|----------------------------------|
 --3-3-3-3-3-3-3-3-3-3-3-3-3-3-3-3-|--5-5-5-5-5-5-5-5-5-5-5-5-5-5-5-5-|

S S S S S S S S S S S S S S S S S S S S S S S S S S S S S S S S
 
 ----------------------------------|----------------------------------|
 ----------------------------------|----------------------------------|
 ----------------------------------|----------------------------------|
 --7-7-7-7-7-7-7-7-7-7-7-7-7-7-7-7-|--7-7-7-7-7-7-7-7-7-7-7-7-7-7-7-7-|

S S S S S S S S S S S S S S S S S S S S S S S S S S S S S S S S
 
 ----------------------------------|----------------------------------|
 ----------------------------------|----------------------------------|
 ----------------------------------|----------------------------------|
 --7-7-7-7-7-7-7-7-7-7-7-7-7-7-7-7-|--3-3-3-3-3-3-3-3-3-3-3-3-3-3-3-3-|

S S S S S S S S S S S S S S S S S S S S S S S S S S S S S S S S
 
 ----------------------------------|----------------------------------|
 ----------------------------------|----------------------------------|
 ----------------------------------|----------------------------------|
 --7-7-7-7-7-7-7-7-7-7-7-7-7-7-7-7-|--0-0-0-0-0-0-0-0-0-0-0-0-0-0-0-0-|

S S S S S S S S S S S S S S S S S S S S S S S S S S S S S S S S
 
 ----------------------------------|----------------------------------|
 ----------------------------------|----------------------------------|
 ----------------------------------|----------------------------------|
 --3-3-3-3-3-3-3-3-3-3-3-3-3-3-3-3-|--5-5-5-5-5-5-5-5-5-5-5-5-5-5-5-5-|

[E] [E] [E] [E] [E] [E] [E] [E] [E] [E] [E] [E] [E] [E] [E] [E]  
 
 --------------------------|--------------------------|
 --------------------------|--------------------------|
 --------------------------|--------------------------|
 --2--2--2--2--2--2--2--0--|--2--2--2--2--2--2--2--2--|

[E] [E] [E] [E] [E] [E] [E] [E] [E] [E] [E] [E] [E] [E] [E] [E]  
 
 --------------------------|--------------------------|
 --------------------------|--------------------------|
 --------------------------|--------------------------|
 --3--3--3--3--3--3--5--5--|--3--3--3--3--3--3--5--5--|

[E] [E] [E] [E] [E] [E] [E] [E] [E] [E] [E] [E] [E] [E] [E] [E]  
 
 --------------------------|--------------------------|
 --------------------------|--------------------------|
 --------------------------|--------------------------|
 --2--2--2--2--2--2--2--0--|--2--2--2--2--2--2--2--2--|

[E] [E] [E] [E] [E] [E] [E] [E] [E] [E] [E] [E] [E] [E] [E] [E]  
 
 --------------------------|--------------------------|
 --------------------------|--------------------------|
 --------------------------|--------------------------|
 --3--3--3--3--3--3--3--3--|--5--5--5--5--5--5--5--5--|

[E] [E] [E] [E] [E] [E] [E] [E] [E] [E] [E] [E] [E] [E] [E] [E]  
 
 --------------------------|--------------------------|
 --------------------------|--------------------------|
 --------------------------|--------------------------|
 --2--2--2--2--2--2--2--0--|--2--2--2--2--2--2--2--2--|

[E] [E] [E] [E] [E] [E] [E] [E] [E] [E] [E] [E] [E] [E] [E] [E]  
 
 --------------------------|--------------------------|
 --------------------------|--------------------------|
 --------------------------|--------------------------|
 --3--3--3--3--3--3--5--5--|--3--3--3--3--3--3--5--5--|

E E E E E E E E E E E E E E E E W
 
 --------------------------|--------------------------||--------------------|
 --------------------------|--------------------------||*-------------------|
 --------------------------|--------------------------||*-------------------|
 --2--2--2--2--2--2--2--0--|--2--2--2--2--2--2--2--2--||---3----------------|

W H H W
 
 -------------------|--------------------|-------------------|
 -------------------|--------------------|-------------------|
 -------------------|--5-----------------|-------------------|
 --5----------------|-----------5--------|--7----------------|

W W S S S S S S S S S S S S S S S S
 
 -------------------|-------------------|----------------------------------|
 -------------------|-------------------|----------------------------------|
 -------------------|-------------------|----------------------------------|
 --3----------------|--5----------------|--2-2-2-2-2-2-2-2-2-2-2-2-2-2-2-2-|

S S S S S S S S S S S S S S S S S S S S S S S S S S S S S S S S
 
 -----------------------------------||-----------------------------------|
 ----------------------------------*||*----------------------------------|
 ----------------------------------*||*----------------------------------|
 --2-2-2-2-2-2-2-2-2-2-2-2-2-2-2-2--||---7-7-7-7-7-7-7-7-7-7-7-7-7-7-7-7-|

S S S S S S S S S S S S S S S S S S S S S S S S S S S S S S S S
 
 ----------------------------------|----------------------------------|
 ----------------------------------|----------------------------------|
 ----------------------------------|----------------------------------|
 --3-3-3-3-3-3-3-3-3-3-3-3-3-3-3-3-|--7-7-7-7-7-7-7-7-7-7-7-7-7-7-7-7-|

S S S S S S S S S S S S S S S S S S S S S S S S S S S S S S S S
 
 ----------------------------------|----------------------------------|
 ----------------------------------|----------------------------------|
 ----------------------------------|----------------------------------|
 --0-0-0-0-0-0-0-0-0-0-0-0-0-0-0-0-|--3-3-3-3-3-3-3-3-3-3-3-3-3-3-3-3-|

S S S S S S S S S S S S S S S S S S S S S S S S S S S S S S S S
 
 ----------------------------------|----------------------------------|
 ----------------------------------|----------------------------------|
 ----------------------------------|----------------------------------|
 --5-5-5-5-5-5-5-5-5-5-5-5-5-5-5-5-|--7-7-7-7-7-7-7-7-7-7-7-7-7-7-7-7-|

S S S S S S S S S S S S S S S S S S S S S S S S S S S S S S S S
 
 -----------------------------------||----------------------------------|
 ----------------------------------*||----------------------------------|
 ----------------------------------*||----------------------------------|
 --7-7-7-7-7-7-7-7-7-7-7-7-7-7-7-7--||--7-7-7-7-7-7-7-7-7-7-7-7-7-7-7-7-|

S S S S S S S S S S S S S S S S S S S S S S S S S S S S S S S S
 
 ----------------------------------|----------------------------------|
 ----------------------------------|----------------------------------|
 ----------------------------------|----------------------------------|
 --2-2-2-2-2-2-2-2-2-2-2-2-2-2-2-2-|--2-2-2-2-2-2-2-2-2-2-2-2-2-2-2-2-|

W W S S S S S S S S S S S S S S S S
 
 -------------------|-------------------|----------------------------------|
 -------------------|-------------------|----------------------------------|
 -------------------|-------------------|----------------------------------|
 --3----------------|--L----------------|--2-2-2-2-2-2-2-2-2-2-2-2-2-2-2-2-|

S S S S S S S S S S S S S S S S W W
 
 ----------------------------------|-------------------|-------------------|
 ----------------------------------|-------------------|-------------------|
 ----------------------------------|-------------------|-------------------|
 --2-2-2-2-2-2-2-2-2-2-2-2-2-2-2-2-|--3----------------|--L----------------|

S S S S S S S S S S S S S S S S S S S S S S S S S S S S S S S S
 
 ----------------------------------|----------------------------------|
 ----------------------------------|----------------------------------|
 ----------------------------------|----------------------------------|
 --2-2-2-2-2-2-2-2-2-2-2-2-2-2-2-2-|--2-2-2-2-2-2-2-2-2-2-2-2-2-2-2-2-|

W W S S S S S S S S S S S S S S S S
 
 -------------------|-------------------|----------------------------------|
 -------------------|-------------------|----------------------------------|
 -------------------|-------------------|----------------------------------|
 --3----------------|--L----------------|--2-2-2-2-2-2-2-2-2-2-2-2-2-2-2-2-|

S S S S S S S S S S S S S S S S E E E E E E E E
 
 ----------------------------------|--------------------------|
 ----------------------------------|--------------------------|
 ----------------------------------|--------------------------|
 --2-2-2-2-2-2-2-2-2-2-2-2-2-2-2-2-|--3--3--3--3--3--3--3--3--|

[E] [E] [E] [E] [E] [E] [E] [E] [E] [E] [E] [E] [E] [E] [E] [E]  
 
 --------------------------|--------------------------|
 --------------------------|--------------------------|
 --------------------------|--5--5--5--5--------------|
 --5--5--5--5--5--5--5--5--|--------------5--5--5--5--|

[E] [E] [E] [E] [E] [E] [E] [E] [E] [E] [E] [E] [E] [E] [E] [E]  
 
 --------------------------|--------------------------|
 --------------------------|--------------------------|
 --------------------------|--------------------------|
 --7--7--7--7--7--7--7--7--|--3--3--3--3--3--3--3--3--|

E E E E E E E E S S S S S S S S S S S S S S S S
 
 --------------------------|----------------------------------|
 --------------------------|----------------------------------|
 --------------------------|----------------------------------|
 --5--5--5--5--5--5--5--5--|--2-2-2-2-2-2-2-2-2-2-2-2-2-2-2-2-|

S S S S S S S S S S S S S S S S S S S S S S S S S S S S S S S S
 
 ----------------------------------|----------------------------------|
 ----------------------------------|----------------------------------|
 ----------------------------------|----------------------------------|
 --2-2-2-2-2-2-2-2-2-2-2-2-2-2-2-2-|--7-7-7-7-7-7-7-7-7-7-7-7-7-7-7-7-|

S S S S S S S S S S S S S S S S S S S S S S S S S S S S S S S S
 
 ----------------------------------|----------------------------------|
 ----------------------------------|----------------------------------|
 ----------------------------------|----------------------------------|
 --3-3-3-3-3-3-3-3-3-3-3-3-3-3-3-3-|--7-7-7-7-7-7-7-7-7-7-7-7-7-7-7-7-|

S S S S S S S S S S S S S S S S S S S S S S S S S S S S S S S S
 
 ----------------------------------|----------------------------------|
 ----------------------------------|----------------------------------|
 ----------------------------------|----------------------------------|
 --0-0-0-0-0-0-0-0-0-0-0-0-0-0-0-0-|--3-3-3-3-3-3-3-3-3-3-3-3-3-3-3-3-|

( Tab from: http://www.guitartabs.cc/tabs/w/warcry/alejandro_btab.html )
S S S S S S S S S S S S S S S S S S S S S S S S S S S S S S S S
 
 ----------------------------------|----------------------------------|
 ----------------------------------|----------------------------------|
 ----------------------------------|----------------------------------|
 --5-5-5-5-5-5-5-5-5-5-5-5-5-5-5-5-|--7-7-7-7-7-7-7-7-7-7-7-7-7-7-7-7-|

S S S S S S S S S S S S S S S S S S S S S S S S S S S S S S S S
 
 ----------------------------------|----------------------------------|
 ----------------------------------|----------------------------------|
 ----------------------------------|----------------------------------|
 --7-7-7-7-7-7-7-7-7-7-7-7-7-7-7-7-|--7-7-7-7-7-7-7-7-7-7-7-7-7-7-7-7-|

S S S S S S S S S S S S S S S S S S S S S S S S S S S S S S S S
 
 ----------------------------------|----------------------------------|
 ----------------------------------|----------------------------------|
 ----------------------------------|----------------------------------|
 --3-3-3-3-3-3-3-3-3-3-3-3-3-3-3-3-|--7-7-7-7-7-7-7-7-7-7-7-7-7-7-7-7-|

S S S S S S S S S S S S S S S S S S S S S S S S S S S S S S S S
 
 ----------------------------------|----------------------------------|
 ----------------------------------|----------------------------------|
 ----------------------------------|----------------------------------|
 --0-0-0-0-0-0-0-0-0-0-0-0-0-0-0-0-|--3-3-3-3-3-3-3-3-3-3-3-3-3-3-3-3-|

S S S S S S S S S S S S S S S S E. E. E Q Q Q Q
 
 ----------------------------------|------------------||------------------|
 ----------------------------------|------------------||*-----------------|
 ----------------------------------|------------------||*-----------------|
 --5-5-5-5-5-5-5-5-5-5-5-5-5-5-5-5-|--5---3---2--3----||---3----3----3----|

Q Q Q Q Q Q Q Q Q Q Q Q
 
 -----------------|-----------------|-----------------|-----------------|
 -----------------|-----------------|-----------------|-----------------|
 -----------------|-----------------|-----------------|-----------------|
 --3----3----3----|--3----3----3----|--3----3----3----|--3----3----3----|

Q Q Q Q Q Q Q Q Q W
 
 -----------------|-----------------|------------------||-------------------|
 -----------------|-----------------|-----------------*||-------------------|
 -----------------|-----------------|-----------------*||-------------------|
 --3----2----2----|--2----2----2----|--2----2----2-----||--7----------------|

W W H. W
 
 -------------------|-------------------|---------------|-------------------|
 -------------------|-------------------|---------------|-------------------|
 -------------------|-------------------|---------------|-------------------|
 --3----------------|--2----------------|--0------------|--5----------------|

H. W H. H.
 
 ---------------|-------------------|---------------|---------------|
 ---------------|-------------------|---------------|---------------|
 ---------------|-------------------|---------------|---------------|
 --2------------|--7----------------|--3------------|--2------------|

H. H. H. W
 
 ---------------|---------------|---------------|-------------------|
 ---------------|---------------|---------------|-------------------|
 ---------------|---------------|---------------|-------------------|
 --0------------|--5------------|--5------------|--2----------------|

W E E E E E E E E E E E E E E E E
 
 -------------------|--------------------------|--------------------------|
 -------------------|--------------------------|--------------------------|
 -------------------|--------------------------|--------------------------|
 --6----------------|--7--7--7--7--7--7--7--7--|--5--5--5--5--5--5--5--5--|

[E] [E] [E] [E] [E] [E] [E] [E] [E] [E] [E] [E] [E] [E] [E] [E]  
 
 --------------------------|--------------------------|
 --------------------------|--------------------------|
 --------------------------|--------------------------|
 --2--2--2--2--2--2--2--2--|--7--7--7--7--7--7--7--7--|

[E] [E] [E] [E] [E] [E] [E] [E] [E] [E] [E] [E] [E] [E] [E] [E]  
 
 --------------------------|--------------------------|
 --------------------------|--------------------------|
 --------------------------|--------------------------|
 --3--3--3--3--3--3--3--3--|--0--0--0--0--0--0--0--0--|

[E] [E] [E] [E] [E] [E] [E] [E] [E] [E] [E] [E] [E] [E] [E] [E]  
 
 --------------------------|--------------------------|
 --------------------------|--------------------------|
 --5--5--5--5--5--5--5--5--|--4--4--4--4--4--4--4--4--|
 --------------------------|--------------------------|

[E] [E] [E] [E] [E] [E] [E] [E] [E] [E] [E] [E] [E] [E] [E] [E]  
 
 --------------------------|--------------------------|
 --------------------------|--------------------------|
 --------------------------|--------------------------|
 --7--7--7--7--7--7--7--7--|--5--5--5--5--5--5--5--5--|

[E] [E] [E] [E] [E] [E] [E] [E] [E] [E] [E] [E] [E] [E] [E] [E]  
 
 --------------------------|--------------------------|
 --------------------------|--------------------------|
 --------------------------|--------------------------|
 --3--3--3--3--3--3--3--3--|--7--7--7--7--7--7--7--7--|

[E] [E] [E] [E] [E] [E] [E] [E] [E] [E] [E] [E] [E] [E] [E] [E]  
 
 --------------------------|--------------------------|
 --------------------------|--------------------------|
 --------------------------|--------------------------|
 --5--5--5--5--5--5--5--5--|--2--2--2--2--2--2--2--2--|

[E] [E] [E] [E] [E] [E] [E] [E] [E] [E] [E] [E] [E] [E] [E] [E]  
 
 --------------------------|--------------------------|
 --------------------------|--------------------------|
 --5--5--5--5--5--5--5--5--|--4--4--4--4--4--4--4--4--|
 --------------------------|--------------------------|

[E] [E] [E] [E] [E] [E] [E] [E] [E] [E] [E] [E] [E] [E] [E] [E]  
 
 --------------------------|--------------------------|
 --------------------------|--------------------------|
 --------------------------|--------------------------|
 --4--4--4--4--4--4--4--4--|--1--1--1--1--1--1--1--1--|

[E] [E] [E] [E] [E] [E] [E] [E] [E] [E] [E] [E] [E] [E] [E] [E]  
 
 --------------------------|--------------------------|
 --------------------------|--------------------------|
 --------------------------|--------------------------|
 --1--1--1--1--1--1--1--1--|--4--4--4--4--4--4--4--4--|

E E E E E E E E E E E E E E E E W
 
 --------------------------|--------------------------|-------------------|
 --------------------------|--------------------------|-------------------|
 --------------------------|--2--2--2--2--2--2--2--2--|-------------------|
 --3--3--3--3--3--3--3--3--|--------------------------|--7----------------|

W W W W
 
 -------------------|-------------------|-------------------|-------------------|
 -------------------|-------------------|-------------------|-------------------|
 -------------------|-------------------|-------------------|-------------------|
 --3----------------|--7----------------|--0----------------|--3----------------|

H. Q W W
 
 --------------------|-------------------|-------------------|
 --------------------|-------------------|-------------------|
 --------------------|-------------------|-------------------|
 --5------------6----|--7----------------|--L----------------|

W W W W
 
 -------------------|-------------------|-------------------|-------------------|
 -------------------|-------------------|-------------------|-------------------|
 -------------------|-------------------|-------------------|-------------------|
 --7----------------|--3----------------|--7----------------|--0----------------|

W H. Q W
 
 -------------------|--------------------|-------------------|
 -------------------|--------------------|-------------------|
 -------------------|--------------------|-------------------|
 --3----------------|--5------------6----|--7----------------|

W E Q. E Q. W
 
 -------------------|----------------------|-------------------|
 -------------------|----------------------|-------------------|
 -------------------|----------------------|-------------------|
 --L----------------|--5---------2---------|-------------------|

S S S S S S S S S S S S S S S S S S S S S S S S S S S S S S S S
 
 |-----------------------------------|----------------------------------|
 |*----------------------------------|----------------------------------|
 |*----------------------------------|----------------------------------|
 |---7-7-7-7-7-7-7-7-7-7-7-7-7-7-7-7-|--3-3-3-3-3-3-3-3-3-3-3-3-3-3-3-3-|

S S S S S S S S S S S S S S S S S S S S S S S S S S S S S S S S
 
 ----------------------------------|----------------------------------|
 ----------------------------------|----------------------------------|
 ----------------------------------|----------------------------------|
 --7-7-7-7-7-7-7-7-7-7-7-7-7-7-7-7-|--0-0-0-0-0-0-0-0-0-0-0-0-0-0-0-0-|

S S S S S S S S S S S S S S S S S S S S S S S S S S S S S S S S
 
 ----------------------------------|----------------------------------|
 ----------------------------------|----------------------------------|
 ----------------------------------|----------------------------------|
 --3-3-3-3-3-3-3-3-3-3-3-3-3-3-3-3-|--5-5-5-5-5-5-5-5-5-5-5-5-5-5-5-5-|

S S S S S S S S S S S S S S S S S S S S S S S S S S S S S S S S
 
 ----------------------------------|-----------------------------------||
 ----------------------------------|----------------------------------*||
 ----------------------------------|----------------------------------*||
 --7-7-7-7-7-7-7-7-7-7-7-7-7-7-7-7-|--7-7-7-7-7-7-7-7-7-7-7-7-7-7-7-7--||

S S S S S S S S S S S S S S S S S S S S S S S S S S S S S S S S
 
 ----------------------------------||-----------------------------------|
 ----------------------------------||*----------------------------------|
 ----------------------------------||*----------------------------------|
 --7-7-7-7-7-7-7-7-7-7-7-7-7-7-7-7-||---7-7-7-7-7-7-7-7-7-7-7-7-7-7-7-7-|

S S S S S S S S S S S S S S S S S S S S S S S S S S S S S S S S
 
 ----------------------------------|----------------------------------|
 ----------------------------------|----------------------------------|
 ----------------------------------|----------------------------------|
 --3-3-3-3-3-3-3-3-3-3-3-3-3-3-3-3-|--7-7-7-7-7-7-7-7-7-7-7-7-7-7-7-7-|

S S S S S S S S S S S S S S S S S S S S S S S S S S S S S S S S
 
 ----------------------------------|----------------------------------|
 ----------------------------------|----------------------------------|
 ----------------------------------|----------------------------------|
 --0-0-0-0-0-0-0-0-0-0-0-0-0-0-0-0-|--3-3-3-3-3-3-3-3-3-3-3-3-3-3-3-3-|

S S S S S S S S S S S S S S S S S S S S S S S S S S S S S S S S
 
 ----------------------------------|----------------------------------|
 ----------------------------------|----------------------------------|
 ----------------------------------|----------------------------------|
 --5-5-5-5-5-5-5-5-5-5-5-5-5-5-5-5-|--7-7-7-7-7-7-7-7-7-7-7-7-7-7-7-7-|

S S S S S S S S S S S S S S S S S S S S S S S S S S S S S S S S
 
 -----------------------------------||----------------------------------|
 ----------------------------------*||----------------------------------|
 ----------------------------------*||----------------------------------|
 --7-7-7-7-7-7-7-7-7-7-7-7-7-7-7-7--||--3-3-3-3-3-3-3-3-3-3-3-3-3-3-3-3-|

S S S S S S S S S S S S S S S S W W
 
 ----------------------------------|-------------------|-------------------|
 ----------------------------------|-------------------|-------------------|
 ----------------------------------|-------------------|-------------------|
 --5-5-5-5-5-5-5-5-5-5-5-5-5-5-5-5-|--L----------------|--L----------------|

Q H Q
 
 ---------------------||
 ---------------------||
 ---------------------||
 --5----7-------------||

Duration Legend
 
 ---------------

W - whole
H - half
Q - quarter
E - 8th
S - 16th
T - 32nd
X - 64th
. - note dotted
|-n-| - n-tuplets
Tablature Legend
 
 ----------------

L - tied note
x - dead note
g - grace note
(n) - ghost note
> - accentuded note
NH - natural harmonic
AH - artificial harmonic
TH - tapped harmonic
SH - semi harmonic
PH - pitch harmonic
h - hammer on
p - pull off
b - bend
br - bendRelease
pb - preBend
pbr - preBendRelease
brb - bendReleaseBend
\n/ - tremolo bar dip
\n - tremolo bar dive
-/n - tremolo bar Release up
/n\ - tremolo bar inverted dip
/n - tremolo bar return
-\n - tremolo bar Release down
S - shift slide
s - legato slide
/ - slide into from below or out of upwards
\ - slide into from above or out of downwards
~ - vibrato
W - wide vibrato
tr - trill
TP - tremolo picking
T - tapping
S - slap
P - pop
< - fade in
^ - brush up
v - brush down

Important: The song above is NOT stored on the Chordie server. The original song is hosted at www.guitartabs.cc. Chordie works as a search engine and provides on-the-fly formatting. Chordie does not index songs against artists'/composers' will. To remove this song please click here.

Text color:
Chord color:
Chord grids: 
Font size:    
Page size: 

E
Rate #1 of 1 versions

Jango Player

Login - add to songbook

SHARE PAGE  




You need to log in to post comments