Guitar Tabs, Chords and Lyrics
Server problems seems to be fixed. Chordie has been experiencing problems with songs disappearing. These issues now seems to be fixed, but still verifying the fix. If you find anything strange, please email admin@chordie.com.


Contra el viento  WarCry

Contra el Viento
Transcribed by rokero13
Warcry
[Bass]  
E E H. W E E H.
 
 F#||---------------------|-------------------|---------------------|
 C#||---------------------|-------------------|---------------------|
 G#||---------------------|-------------------|---------------------|
 D#||--7--7---------------|--3----------------|--7--7---------------|

W W W
 
 -------------------|-------------------|-------------------|
 -------------------|-------------------|-------------------|
 -------------------|--5----------------|-------------------|
 --3----------------|-------------------|--2----------------|

H. Q W E E H.
 
 --------------------|-------------------|---------------------|
 --------------------|-------------------|---------------------|
 --------------------|-------------------|---------------------|
 --7------------3----|--L----------------|--7--7---------------|

W E E H. W
 
 -------------------|---------------------|-------------------|
 -------------------|---------------------|-------------------|
 -------------------|---------------------|-------------------|
 --3----------------|--7--7---------------|--3----------------|

W W H. Q
 
 -------------------|-------------------|--------------------|
 -------------------|-------------------|--------------------|
 --5----------------|-------------------|--------------------|
 -------------------|--2----------------|--7------------3----|

W W E E H E E
 
 -------------------|-------------------|-----------------------|
 -------------------|-------------------|-----------------------|
 -------------------|-------------------|-----------------------|
 --L----------------|--L----------------|--3--3-----------3--3--|

E E Q Q E E E E H E E E E Q Q E E
 
 ------------------------|-----------------------|------------------------|
 ------------------------|-----------------------|------------------------|
 ------------------------|-----------------------|------------------------|
 --3--3-------3----3--3--|--2--2-----------2--2--|--2--2-------2----2--2--|

E E H E E E E Q Q E E E E H E E
 
 -----------------------|------------------------|-----------------------|
 -----------------------|------------------------|-----------------------|
 -----------------------|------------------------|-----------------------|
 --7--7-----------7--7--|--7--7-------7----7--7--|--7--7-----------7--7--|

E E Q Q E E E E H E E E E Q Q E E
 
 ------------------------|-----------------------|------------------------|
 ------------------------|-----------------------|------------------------|
 ------------------------|-----------------------|------------------------|
 --7--7-------7----7--7--|--3--3-----------3--3--|--3--3-------3----3--3--|

E E H E E E E Q Q E E E E H E E
 
 -----------------------|------------------------|-----------------------|
 -----------------------|------------------------|-----------------------|
 -----------------------|------------------------|-----------------------|
 --2--2-----------2--2--|--2--2-------2----2--2--|--7--7-----------7--7--|

E E Q Q E E E E H E E E E Q Q E E
 
 ------------------------|-----------------------|------------------------|
 ------------------------|-----------------------|------------------------|
 ------------------------|-----------------------|------------------------|
 --7--7-------7----7--7--|--7--7-----------7--7--|--7--7-------7----7--7--|

[E] [E] [E] [E] [E] [E] [E] [E] [E] [E] [E] [E] [E] [E] [E] [E]  
 
 --------------------------|--------------------------|
 --------------------------|--------------------------|
 --------------------------|--------------------------|
 --3--3--3--3--3--3--3--3--|--2--2--2--2--2--2--2--2--|

[E] [E] [E] [E] [E] [E] [E] [E] [E] [E] [E] [E] [E] [E] [E] [E]  
 
 --------------------------|--------------------------|
 --------------------------|--------------------------|
 --------------------------|--------------------------|
 --7--7--7--7--7--7--7--7--|--5--5--5--5--5--5--5--5--|

[E] [E] [E] [E] [E] [E] [E] [E] [E] [E] [E] [E] [E] [E] [E] [E]  
 
 --------------------------|--------------------------|
 --------------------------|--------------------------|
 --------------------------|--------------------------|
 --3--3--3--3--3--3--3--3--|--7--7--7--7--5--5--5--5--|

[E] [E] [E] [E] [E] [E] [E] [E] [E] [E] [E] [E] [E] [E] [E] [E]  
 
 --------------------------|--------------------------|
 --------------------------|--------------------------|
 --------------------------|--------------------------|
 --7--7--7--7--7--7--7--7--|--7--7--7--7--7--7--7--7--|

[E] [E] [E] [E] [E] [E] [E] [E] [E] [E] [E] [E] [E] [E] [E] [E]  
 
 --------------------------|--------------------------|
 --------------------------|--------------------------|
 --------------------------|--------------------------|
 --3--3--3--3--3--3--3--3--|--2--2--2--2--2--2--2--2--|

[E] [E] [E] [E] [E] [E] [E] [E] [E] [E] [E] [E] [E] [E] [E] [E]  
 
 --------------------------|--------------------------|
 --------------------------|--------------------------|
 --------------------------|--------------------------|
 --7--7--7--7--7--7--7--7--|--5--5--5--5--5--5--5--5--|

[E] [E] [E] [E] [E] [E] [E] [E] [E] [E] [E] [E] [E] [E] [E] [E]  
 
 --------------------------|--------------------------|
 --------------------------|--------------------------|
 --------------------------|--------------------------|
 --3--3--3--3--3--3--3--3--|--7--7--7--7--5--5--5--5--|

[E] [E] [E] [E] [E] [E] [E] [E] [E] [E] [E] [E] [E] [E] [E] [E]  
 
 --------------------------|--------------------------|
 --------------------------|--------------------------|
 --------------------------|--------------------------|
 --7--7--7--7--7--7--7--7--|--7--7--7--7--7--7--7--7--|

[E] [E] [E] [E] [E] [E] [E] [E] [E] [E] [E] [E] [E] [E] [E] [E]  
 
 --------------------------|--------------------------|
 --------------------------|--------------------------|
 --------------------------|--------------------------|
 --7--7--7--7--7--7--7--7--|--3--3--3--3--3--3--3--3--|

[E] [E] [E] [E] [E] [E] [E] [E] [E] [E] [E] [E] [E] [E] [E] [E]  
 
 --------------------------|--------------------------|
 --------------------------|--------------------------|
 --------------------------|--------------------------|
 --7--7--7--7--7--7--7--7--|--3--3--3--3--3--3--3--3--|

( Tab from: http://www.guitartabs.cc/tabs/w/warcry/contra_el_viento_btab.html )
E E E E E E E E E E E E E E E E H. Q
 
 --------------------------|--------------------------|--------------------|
 --------------------------|--------------------------|--------------------|
 --5--5--5--5--5--5--5--5--|--------------------------|--------------------|
 --------------------------|--2--2--2--2--2--2--2--2--|--7------------3----|

W E E E E E E E E E E E E E E E E
 
 -------------------|--------------------------|--------------------------|
 -------------------|--------------------------|--------------------------|
 -------------------|--------------------------|--------------------------|
 --L----------------|--7--7--7--7--7--7--7--7--|--3--3--3--3--3--3--3--3--|

[E] [E] [E] [E] [E] [E] [E] [E] [E] [E] [E] [E] [E] [E] [E] [E]  
 
 --------------------------|--------------------------|
 --------------------------|--------------------------|
 --------------------------|--------------------------|
 --7--7--7--7--7--7--7--7--|--3--3--3--3--3--3--3--3--|

E E E E E E E E E E E E E E E E H. Q
 
 --------------------------|--------------------------|--------------------|
 --------------------------|--------------------------|--------------------|
 --5--5--5--5--5--5--5--5--|--------------------------|--------------------|
 --------------------------|--2--2--2--2--2--2--2--2--|--7------------3----|

W E E H E E E E Q Q E E
 
 -------------------|-----------------------|------------------------|
 -------------------|-----------------------|------------------------|
 -------------------|-----------------------|------------------------|
 --L----------------|--3--3-----------3--3--|--3--3-------3----3--3--|

E E H E E E E Q Q E E E E H E E
 
 -----------------------|------------------------|-----------------------|
 -----------------------|------------------------|-----------------------|
 -----------------------|------------------------|-----------------------|
 --2--2-----------2--2--|--2--2-------2----2--2--|--7--7-----------7--7--|

E E Q Q E E E E H E E E E Q Q E E
 
 ------------------------|-----------------------|------------------------|
 ------------------------|-----------------------|------------------------|
 ------------------------|-----------------------|------------------------|
 --7--7-------7----7--7--|--7--7-----------7--7--|--7--7-------7----7--7--|

E E H E E E E Q Q E E E E H E E
 
 -----------------------|------------------------|-----------------------|
 -----------------------|------------------------|-----------------------|
 -----------------------|------------------------|-----------------------|
 --3--3-----------3--3--|--3--3-------3----3--3--|--2--2-----------2--2--|

E E Q Q E E E E H E E E E Q Q E E
 
 ------------------------|-----------------------|------------------------|
 ------------------------|-----------------------|------------------------|
 ------------------------|-----------------------|------------------------|
 --2--2-------2----2--2--|--7--7-----------7--7--|--7--7-------7----7--7--|

E E H E E E E Q Q E E E E E E E E E E
 
 -----------------------|------------------------|--------------------------|
 -----------------------|------------------------|--------------------------|
 -----------------------|------------------------|--------------------------|
 --7--7-----------7--7--|--7--7-------7----7--7--|--3--3--3--3--3--3--3--3--|

[E] [E] [E] [E] [E] [E] [E] [E] [E] [E] [E] [E] [E] [E] [E] [E]  
 
 --------------------------|--------------------------|
 --------------------------|--------------------------|
 --------------------------|--------------------------|
 --2--2--2--2--2--2--2--2--|--7--7--7--7--7--7--7--7--|

[E] [E] [E] [E] [E] [E] [E] [E] [E] [E] [E] [E] [E] [E] [E] [E]  
 
 --------------------------|--------------------------|
 --------------------------|--------------------------|
 --------------------------|--------------------------|
 --5--5--5--5--5--5--5--5--|--3--3--3--3--3--3--3--3--|

[E] [E] [E] [E] [E] [E] [E] [E] [E] [E] [E] [E] [E] [E] [E] [E]  
 
 --------------------------|--------------------------|
 --------------------------|--------------------------|
 --------------------------|--------------------------|
 --7--7--7--7--5--5--5--5--|--7--7--7--7--7--7--7--7--|

[E] [E] [E] [E] [E] [E] [E] [E] [E] [E] [E] [E] [E] [E] [E] [E]  
 
 --------------------------|--------------------------|
 --------------------------|--------------------------|
 --------------------------|--------------------------|
 --7--7--7--7--7--7--7--7--|--3--3--3--3--3--3--3--3--|

[E] [E] [E] [E] [E] [E] [E] [E] [E] [E] [E] [E] [E] [E] [E] [E]  
 
 --------------------------|--------------------------|
 --------------------------|--------------------------|
 --------------------------|--------------------------|
 --2--2--2--2--2--2--2--2--|--7--7--7--7--7--7--7--7--|

[E] [E] [E] [E] [E] [E] [E] [E] [E] [E] [E] [E] [E] [E] [E] [E]  
 
 --------------------------|--------------------------|
 --------------------------|--------------------------|
 --------------------------|--------------------------|
 --5--5--5--5--5--5--5--5--|--3--3--3--3--3--3--3--3--|

[E] [E] [E] [E] [E] [E] [E] [E] [E] [E] [E] [E] [E] [E] [E] [E]  
 
 --------------------------|--------------------------|
 --------------------------|--------------------------|
 --------------------------|--------------------------|
 --7--7--7--7--5--5--5--5--|--7--7--7--7--7--7--7--7--|

E E E E E E E E W W
 
 --------------------------|-------------------|-------------------|
 --------------------------|-------------------|-------------------|
 --------------------------|-------------------|-------------------|
 --7--7--7--7--7--7--7--7--|--3----------------|--L----------------|

W W E E E E E E E E
 
 -------------------|-------------------|--------------------------|
 -------------------|-------------------|--------------------------|
 -------------------|-------------------|--------------------------|
 --2----------------|--2----------------|--2--2--2--2--2--2--2--2--|

[E] [E] [E] [E] [E] [E] [E] [E]  
 
 --------------------------||
 --------------------------||
 --------------------------||
 --2--2--2--2--2--2--2--2--||

Duration Legend
 
 ---------------

W - whole
H - half
Q - quarter
E - 8th
S - 16th
T - 32nd
X - 64th
. - note dotted
|-n-| - n-tuplets
Tablature Legend
 
 ----------------

L - tied note
x - dead note
g - grace note
(n) - ghost note
> - accentuded note
NH - natural harmonic
AH - artificial harmonic
TH - tapped harmonic
SH - semi harmonic
PH - pitch harmonic
h - hammer on
p - pull off
b - bend
br - bendRelease
pb - preBend
pbr - preBendRelease
brb - bendReleaseBend
\n/ - tremolo bar dip
\n - tremolo bar dive
-/n - tremolo bar Release up
/n\ - tremolo bar inverted dip
/n - tremolo bar return
-\n - tremolo bar Release down
S - shift slide
s - legato slide
/ - slide into from below or out of upwards
\ - slide into from above or out of downwards
~ - vibrato
W - wide vibrato
tr - trill
TP - tremolo picking
T - tapping
S - slap
P - pop
< - fade in
^ - brush up
v - brush down

Important: The song above is NOT stored on the Chordie server. The original song is hosted at www.guitartabs.cc. Chordie works as a search engine and provides on-the-fly formatting. Chordie does not index songs against artists'/composers' will. To remove this song please click here.

Text color:
Chord color:
Chord grids: 
Font size:    
Page size: 

E
Rate #1 of 1 versions

Login - add to songbook

SHARE PAGE  



You need to log in to post comments