Guitar Tabs, Chords and Lyrics
Server problems seems to be fixed. Chordie has been experiencing problems with songs disappearing. These issues now seems to be fixed, but still verifying the fix. If you find anything strange, please email admin@chordie.com.


Trono del metal  WarCry

Trono Del Metal
Transcribed by rokero13
Warcry
Bajo
W W W
 
 G||-------------------|-------------------|-------------------|
 D||-------------------|-------------------|-------------------|
 A||--3----------------|--L----------------|-------------------|
 E||-------------------|-------------------|--3----------------|

W W W
 
 -------------------|-------------------|-------------------|
 -------------------|-------------------|-------------------|
 -------------------|-------------------|-------------------|
 --L----------------|--5----------------|--L----------------|

Q Q Q Q Q Q Q Q E E E E E E E E
 
 ----------------------|----------------------|--------------------------|
 ----------------------|----------------------|--------------------------|
 ----------------------|----------------------|--3--3--3--3--3--3--3--3--|
 --1----1----1----1----|--3----3----3----3----|--------------------------|

[E] [E] [E] [E] [E] [E] [E] [E] [E] [E] [E] [E] [E] [E] [E] [E]  
 
 --------------------------|--------------------------|
 --------------------------|--------------------------|
 --3--3--3--3--3--3--2--0--|--------------------------|
 --------------------------|--3--3--3--3--3--3--3--3--|

[E] [E] [E] [E] [E] [E] [E] [E] [E] [E] [E] [E] [E] [E] [E] [E]  
 
 --------------------------|--------------------------|
 --------------------------|--------------------------|
 --------------------------|--------------------------|
 --3--3--3--3--3--3--5--7--|--5--5--5--5--5--5--5--5--|

[E] [E] [E] [E] [E] [E] [E] [E] [E] [E] [E] [E] [E] [E] [E] [E]  
 
 --------------------------|--------------------------|
 --------------------------|--------------------------|
 --------------------------|--------------------------|
 --5--5--5--5--5--3--3--1--|--1--1--1--1--1--1--1--1--|

[E] [E] [E] [E] [E] [E] [E] [E] [E] [E] [E] [E] [E] [E] [E] [E]  
 
 --------------------------|--------------------------|
 --------------------------|--------------------------|
 --------------------------|--3--3--3--3--3--3--3--3--|
 --3--3--3--3--3--3--3--3--|--------------------------|

[E] [E] [E] [E] [E] [E] [E] [E] [E] [E] [E] [E] [E] [E] [E] [E]  
 
 --------------------------|--------------------------|
 --------------------------|--------------------------|
 --3--3--3--2--2--2--0--0--|--------------------------|
 --------------------------|--3--3--3--3--3--3--3--3--|

[E] [E] [E] [E] [E] [E] [E] [E] [E] [E] [E] [E] [E] [E] [E] [E]  
 
 --------------------------|--------------------------|
 --------------------------|--------------------------|
 --------------------------|--------------------------|
 --3--3--3--5--5--5--7--7--|--5--5--5--5--5--5--5--5--|

[E] [E] [E] [E] [E] [E] [E] [E] [E] [E] [E] [E] [E] [E] [E] [E]  
 
 --------------------------|--------------------------|
 --------------------------|--------------------------|
 --------------------------|--------------------------|
 --5--5--5--5--5--5--3--3--|--1--1--1--1--1--1--1--1--|

[E] [E] [E] [E] [E] [E] [E] [E] [E] [E] [E] [E] [E] [E] [E] [E]  
 
 --------------------------|--------------------------|
 --------------------------|--------------------------|
 --------------------------|--3--3--3--3--3--3--3--3--|
 --3--3--3--3--3--3--3--3--|--------------------------|

[E] [E] [E] [E] [E] [E] [E] [E] [E] [E] [E] [E] [E] [E] [E] [E]  
 
 --------------------------|--------------------------|
 --------------------------|--------------------------|
 --3--3--3--2--2--2--0--0--|--------------------------|
 --------------------------|--3--3--3--3--3--3--3--3--|

[E] [E] [E] [E] [E] [E] [E] [E] [E] [E] [E] [E] [E] [E] [E] [E]  
 
 --------------------------|--------------------------|
 --------------------------|--------------------------|
 --------------------------|--------------------------|
 --3--3--3--5--5--5--7--7--|--5--5--5--5--5--5--5--5--|

[E] [E] [E] [E] [E] [E] [E] [E] [E] [E] [E] [E] [E] [E] [E] [E]  
 
 --------------------------|--------------------------|
 --------------------------|--------------------------|
 --------------------------|--------------------------|
 --5--5--5--5--5--5--3--3--|--1--1--1--1--1--1--1--1--|

E E E E E E E E E E Q E S E S E
 
 --------------------------|--------------------------|
 --------------------------|--------------------------|
 --------------------------|--3--3-------3----3----3--|
 --3--3--3--3--3--3--3--3--|--------------------------|

E E Q E S E S E E E E E E E E E
 
 --------------------------|--------------------------|
 --------------------------|--------------------------|
 --3--3-------3----3----3--|--------------------------|
 --------------------------|--3--3--3--3--3--3--3--3--|

E E E E E E E E E E Q E S E S E
 
 --------------------------|--------------------------|
 --------------------------|--------------------------|
 --------------------------|--------------------------|
 --3--3--3--3--3--3--3--3--|--5--5-------5----5----5--|

E E Q E S E S E E E E E E E E E
 
 --------------------------|--------------------------|
 --------------------------|--------------------------|
 --------------------------|--------------------------|
 --5--5-------5----5----5--|--1--1--1--1--1--1--1--1--|

[E] [E] [E] [E] [E] [E] [E] [E] [E] [E] [E] [E] [E] [E] [E] [E]  
 
 --------------------------|--------------------------|
 --------------------------|--------------------------|
 --------------------------|--3--3--3--3--3--3--3--3--|
 --3--3--3--3--3--3--3--3--|--------------------------|

[E] [E] [E] [E] [E] [E] [E] [E] [E] [E] [E] [E] [E] [E] [E] [E]  
 
 --------------------------|--------------------------|
 --------------------------|--------------------------|
 --3--3--3--3--3--3--3--3--|--------------------------|
 --------------------------|--3--3--3--3--3--3--3--3--|

[E] [E] [E] [E] [E] [E] [E] [E] [E] [E] [E] [E] [E] [E] [E] [E]  
 
 --------------------------|--------------------------|
 --------------------------|--------------------------|
 --------------------------|--------------------------|
 --3--3--3--3--3--3--3--3--|--5--5--5--5--5--5--5--5--|

E E E E E E E E W W
 
 --------------------------|-------------------|-------------------|
 --------------------------|-------------------|-------------------|
 --------------------------|-------------------|-------------------|
 --5--5--5--5--5--5--5--5--|--1----------------|--0----------------|

[E] [E] [E] [E] [E] [E] [E] [E] [E] [E] [E] [E] [E] [E] [E] [E]  
 
 --------------------------|--------------------------|
 --------------------------|--------------------------|
 --------------------------|--------------------------|
 --1--1--1--1--1--1--1--1--|--1--1--1--1--1--1--1--1--|

[E] [E] [E] [E] [E] [E] [E] [E] [E] [E] [E] [E] [E] [E] [E] [E]  
 
 --------------------------|--------------------------|
 --------------------------|--------------------------|
 --------------------------|--------------------------|
 --5--5--5--5--5--5--7--7--|--5--5--5--5--5--5--3--3--|

[E] [E] [E] [E] [E] [E] [E] [E] [E] [E] [E] [E] [E] [E] [E] [E]  
 
 --------------------------|--------------------------|
 --------------------------|--------------------------|
 --------------------------|--------------------------|
 --1--1--1--1--1--1--3--3--|--1--1--1--1--1--1--1--1--|

[E] [E] [E] [E] [E] [E] [E] [E] [E] [E] [E] [E] [E] [E] [E] [E]  
 
 --------------------------|--------------------------|
 --------------------------|--------------------------|
 --------------------------|--------------------------|
 --3--3--3--3--3--3--5--5--|--3--3--3--3--3--3--1--1--|

[E] [E] [E] [E] [E] [E] [E] [E] [E] [E] [E] [E] [E] [E] [E] [E]  
 
 --------------------------|--------------------------|
 --------------------------|--------------------------|
 --------------------------|--------------------------|
 --0--0--0--0--0--0--1--1--|--0--0--0--0--0--0--3--3--|

[E] [E] [E] [E] [E] [E] [E] [E] [E] [E] [E] [E] [E] [E] [E] [E]  
 
 --------------------------|--------------------------|
 --------------------------|--------------------------|
 --------------------------|--------------------------|
 --5--5--5--5--5--5--7--7--|--5--5--5--5--5--5--3--3--|

[E] [E] [E] [E] [E] [E] [E] [E] [E] [E] [E] [E] [E] [E] [E] [E] [B] [B]  
 
 --------------------------|--------------------------|--------------------|
 --------------------------|--------------------------|--------------------|
 --------------------------|--------------------------|--------------------|
 --1--1--1--1--1--1--3--3--|--1--1--1--1--1--1--1--1--|--3--------3--------|

H H W W
 
 --------------------|-------------------|-------------------|
 --------------------|-------------------|-------------------|
 --------------------|--3----------------|--L----------------|
 --3--------3--------|-------------------|-------------------|

W W W W
 
 -------------------|-------------------|-------------------|-------------------|
 -------------------|-------------------|-------------------|-------------------|
 -------------------|-------------------|-------------------|-------------------|
 --3----------------|--L----------------|--5----------------|--L----------------|

[E] [E] [E] [E] [E] [E] [E] [E] [E] [E] [E] [E] [E] [E] [E] [E]  
 
 --------------------------|--------------------------|
 --------------------------|--------------------------|
 --------------------------|--------------------------|
 --1--1--1--1--1--1--1--1--|--3--3--3--3--3--3--3--3--|

[E] [E] [E] [E] [E] [E] [E] [E] [E] [E] [E] [E] [E] [E] [E] [E]  
 
 --------------------------|--------------------------|
 --------------------------|--------------------------|
 --3--3--3--3--3--3--3--3--|--3--3--3--2--2--2--0--0--|
 --------------------------|--------------------------|

[E] [E] [E] [E] [E] [E] [E] [E] [E] [E] [E] [E] [E] [E] [E] [E]  
 
 --------------------------|--------------------------|
 --------------------------|--------------------------|
 --------------------------|--------------------------|
 --3--3--3--3--3--3--3--3--|--3--3--3--5--5--5--7--7--|

[E] [E] [E] [E] [E] [E] [E] [E] [E] [E] [E] [E] [E] [E] [E] [E]  
 
 --------------------------|--------------------------|
 --------------------------|--------------------------|
 --------------------------|--------------------------|
 --5--5--5--5--5--5--5--5--|--5--5--5--5--5--5--3--3--|

[E] [E] [E] [E] [E] [E] [E] [E] [E] [E] [E] [E] [E] [E] [E] [E]  
 
 --------------------------|--------------------------|
 --------------------------|--------------------------|
 --------------------------|--------------------------|
 --1--1--1--1--1--1--1--1--|--1--1--1--1--1--1--1--1--|

[E] [E] [E] [E] [E] [E] [E] [E] [E] [E] [E] [E] [E] [E] [E] [E]  
 
 --------------------------|--------------------------|
 --------------------------|--------------------------|
 --------------------------|--------------------------|
 --1--1--1--1--1--1--1--1--|--1--1--1--1--1--1--1--1--|

[E] [E] [E] [E] [E] [E] [E] [E] [E] [E] [E] [E] [E] [E] [E] [E]  
 
 --------------------------|--------------------------|
 --------------------------|--------------------------|
 --------------------------|--------------------------|
 --1--1--1--1--1--1--1--1--|--3--3--3--3--3--3--3--3--|

[E] [E] [E] [E] [E] [E] [E] [E] [E] [E] [E] [E] [E] [E] [E] [E]  
 
 --------------------------|--------------------------|
 --------------------------|--------------------------|
 --3--3--3--3--3--3--3--3--|--3-----------2-----------|
 --------------------------|--------------------------|

[E] [E] [E] [E] [E] [E] [E] [E] [E] [E] [E] [E] [E] [E] [E] [E]  
 
 --------------------------|--------------------------|
 --------------------------|--------------------------|
 --3--3--3--3--3--3--3--3--|--3--3--3--3--3--3--3--3--|
 --------------------------|--------------------------|

[E] [E] [E] [E] [E] [E] [E] [E] [E] [E] [E] [E] [E] [E] [E] [E]  
 
 --------------------------|--------------------------|
 --------------------------|--------------------------|
 --------------------------|--------------------------|
 --3--3--3--3--3--3--3--3--|--3--3--3--3--3--3--3--3--|

[E] [E] [E] [E] [E] [E] [E] [E] [E] [E] [E] [E] [E] [E] [E] [E]  
 
 --------------------------|--------------------------|
 --------------------------|--------------------------|
 --------------------------|--------------------------|
 --5--5--5--5--5--5--5--5--|--5--5--5--5--5--5--5--5--|

[E] [E] [E] [E] [E] [E] [E] [E] [E] [E] [E] [E] [E] [E] [E] [E]  
 
 --------------------------|--------------------------|
 --------------------------|--------------------------|
 --------------------------|--------------------------|
 --1--1--1--1--1--1--1--1--|--1--1--1--1--1--1--1--1--|

[E] [E] [E] [E] [E] [E] [E] [E] [E] [E] [E] [E] [E] [E] [E] [E]  
 
 --------------------------|--------------------------|
 --------------------------|--------------------------|
 --3--3--3--3--3--3--3--3--|--3--3--3--3--3--3--3--3--|
 --------------------------|--------------------------|

[E] [E] [E] [E] [E] [E] [E] [E] [E] [E] [E] [E] [E] [E] [E] [E]  
 
 --------------------------|--------------------------|
 --------------------------|--------------------------|
 --------------------------|--------------------------|
 --3--3--3--3--3--3--3--3--|--3--3--3--3--3--3--3--3--|

[E] [E] [E] [E] [E] [E] [E] [E] [E] [E] [E] [E] [E] [E] [E] [E]  
 
 --------------------------|--------------------------|
 --------------------------|--------------------------|
 --------------------------|--------------------------|
 --5--5--5--5--5--5--5--5--|--5--5--5--5--5--5--5--5--|

[E] [E] [E] [E] [E] [E] [E] [E] [E] [E] [E] [E] [E] [E] [E] [E]  
 
 --------------------------|--------------------------|
 --------------------------|--------------------------|
 --------------------------|--------------------------|
 --1--1--1--1--1--1--1--1--|--1--1--1--1--1--1--1--1--|

[E] [E] [E] [E] [E] [E] [E] [E] [E] [E] [E] [E] [E] [E] [E] [E]  
 
 --------------------------|--------------------------|
 --------------------------|--------------------------|
 --------------------------|--------------------------|
 --1--1--1--1--1--1--1--1--|--3--3--3--3--3--3--3--3--|

[E] [E] [E] [E] [E] [E] [E] [E] [E] [E] [E] [E] [E] [E] [E] [E]  
 
 --------------------------|--------------------------|
 --------------------------|--------------------------|
 --3--3--3--3--3--3--3--3--|--3--3--3--3--3--3--3--3--|
 --------------------------|--------------------------|

[E] [E] [E] [E] [E] [E] [E] [E] [E] [E] [E] [E] [E] [E] [E] [E]  
 
 --------------------------|--------------------------|
 --------------------------|--------------------------|
 --------------------------|--------------------------|
 --1--1--1--1--1--1--1--1--|--3--3--3--3--3--3--3--3--|

E E E E E E E E E E E E E E E E Q Q Q Q
 
 --------------------------|--------------------------|----------------------|
 --------------------------|--------------------------|----------------------|
 --3--3--3--3--3--3--3--3--|--3-----------2-----------|--3----3----3----3----|
 --------------------------|--------------------------|----------------------|

Q Q Q Q Q Q Q Q Q Q Q Q
 
 ----------------------|----------------------|----------------------|
 ----------------------|----------------------|----------------------|
 --3----3----3----3----|----------------------|----------------------|
 ----------------------|--3----3----3----3----|--3----3----3----3----|

Q Q Q Q Q Q Q Q Q Q Q Q
 
 ----------------------|----------------------|----------------------|
 ----------------------|----------------------|----------------------|
 --3----3----3----3----|--3----3----3----3----|----------------------|
 ----------------------|----------------------|--1----1----1----1----|

Q Q Q Q E E E E E E E E E E E E E E E E
 
 ----------------------|--------------------------|--------------------------|
 ----------------------|--------------------------|--------------------------|
 ----------------------|--------------------------|--------------------------|
 --1----1----1----1----|--1--1--1--1--1--1--1--1--|--1--1--1--1--1--1--1--1--|

[E] [E] [E] [E] [E] [E] [E] [E] [E] [E] [E] [E] [E] [E] [E] [E]  
 
 --------------------------|--------------------------|
 --------------------------|--------------------------|
 --------------------------|--------------------------|
 --3--3--3--3--3--3--3--3--|--3--3--3--3--3--3--3--3--|

E E E E E E E E E E E E E E E E Q Q Q Q
 
 --------------------------|--------------------------|----------------------|
 --------------------------|--------------------------|----------------------|
 --3--3--3--3--3--3--3--3--|--3--3--3--3--3--3--3--3--|----------------------|
 --------------------------|--------------------------|--1----1----1----1----|

Q Q Q Q Q Q Q Q Q Q Q Q
 
 ----------------------|----------------------|----------------------|
 ----------------------|----------------------|----------------------|
 ----------------------|----------------------|----------------------|
 --1----1----1----1----|--3----3----3----3----|--3----3----3----3----|

Q Q Q Q Q Q Q Q W
 
 ----------------------|----------------------|-------------------|
 ----------------------|----------------------|-------------------|
 ----------------------|----------------------|--3----------------|
 --3----3----3----3----|--3----3----3----3----|-------------------|

W W W W
 
 -------------------|-------------------|-------------------|-------------------|
 -------------------|-------------------|-------------------|-------------------|
 --L----------------|-------------------|-------------------|-------------------|
 -------------------|--3----------------|--L----------------|--5----------------|

W E E E E E E E E E E E E E E E E
 
 -------------------|--------------------------|--------------------------|
 -------------------|--------------------------|--------------------------|
 -------------------|--------------------------|--------------------------|
 --L----------------|--1--1--1--1--1--1--1--1--|--3--3--3--3--3--3--3--3--|

[E] [E] [E] [E] [E] [E] [E] [E] [E] [E] [E] [E] [E] [E] [E] [E]  
 
 --------------------------|--------------------------|
 --------------------------|--------------------------|
 --3--3--3--3--3--3--3--3--|--3--3--3--2--2--2--0--0--|
 --------------------------|--------------------------|

[E] [E] [E] [E] [E] [E] [E] [E] [E] [E] [E] [E] [E] [E] [E] [E]  
 
 --------------------------|--------------------------|
 --------------------------|--------------------------|
 --------------------------|--------------------------|
 --3--3--3--3--3--3--3--3--|--3--3--3--5--5--5--7--7--|

[E] [E] [E] [E] [E] [E] [E] [E] [E] [E] [E] [E] [E] [E] [E] [E]  
 
 --------------------------|--------------------------|
 --------------------------|--------------------------|
 --------------------------|--------------------------|
 --5--5--5--5--5--5--5--5--|--5--5--5--5--5--5--3--3--|

[E] [E] [E] [E] [E] [E] [E] [E] [E] [E] [E] [E] [E] [E] [E] [E]  
 
 --------------------------|--------------------------|
 --------------------------|--------------------------|
 --------------------------|--------------------------|
 --1--1--1--1--1--1--1--1--|--1--1--1--1--1--1--1--1--|

[E] [E] [E] [E] [E] [E] [E] [E] [E] [E] [E] [E] [E] [E] [E] [E]  
 
 --------------------------|--------------------------|
 --------------------------|--------------------------|
 --------------------------|--------------------------|
 --1--1--1--1--1--1--1--1--|--1--1--1--1--1--1--1--1--|

[E] [E] [E] [E] [E] [E] [E] [E] [E] [E] [E] [E] [E] [E] [E] [E]  
 
 --------------------------|--------------------------|
 --------------------------|--------------------------|
 --------------------------|--------------------------|
 --1--1--1--1--1--1--1--1--|--3--3--3--3--3--3--3--3--|

[E] [E] [E] [E] [E] [E] [E] [E] [E] [E] [E] [E] [E] [E] [E] [E]  
 
 --------------------------|--------------------------|
 --------------------------|--------------------------|
 --3--3--3--3--3--3--3--3--|--3--3--3--2--2--2--0--0--|
 --------------------------|--------------------------|

[E] [E] [E] [E] [E] [E] [E] [E] [E] [E] [E] [E] [E] [E] [E] [E]  
 
 --------------------------|--------------------------|
 --------------------------|--------------------------|
 --------------------------|--------------------------|
 --3--3--3--3--3--3--3--3--|--3--3--3--5--5--5--7--7--|

[E] [E] [E] [E] [E] [E] [E] [E] [E] [E] [E] [E] [E] [E] [E] [E]  
 
 --------------------------|--------------------------|
 --------------------------|--------------------------|
 --------------------------|--------------------------|
 --5--5--5--5--5--5--5--5--|--5--5--5--5--5--5--3--3--|

[E] [E] [E] [E] [E] [E] [E] [E] [E] [E] [E] [E] [E] [E] [E] [E]  
 
 --------------------------|--------------------------|
 --------------------------|--------------------------|
 --------------------------|--------------------------|
 --1--1--1--1--1--1--1--1--|--3--3--3--3--3--3--3--3--|

[E] [E] [E] [E] [E] [E] [E] [E] [E] [E] [E] [E] [E] [E] [E] [E]  
 
 --------------------------|--------------------------|
 --------------------------|--------------------------|
 --3--3--3--3--3--3--3--3--|--3--3--3--2--2--2--0--0--|
 --------------------------|--------------------------|

[E] [E] [E] [E] [E] [E] [E] [E] [E] [E] [E] [E] [E] [E] [E] [E]  
 
 --------------------------|--------------------------|
 --------------------------|--------------------------|
 --------------------------|--------------------------|
 --3--3--3--3--3--3--3--3--|--3--3--3--5--5--5--7--7--|

[E] [E] [E] [E] [E] [E] [E] [E] [E] [E] [E] [E] [E] [E] [E] [E]  
 
 --------------------------|--------------------------|
 --------------------------|--------------------------|
 --------------------------|--------------------------|
 --5--5--5--5--5--5--5--5--|--5--5--5--5--5--5--3--3--|

[E] [E] [E] [E] [E] [E] [E] [E] [E] [E] [E] [E] [E] [E] [E] [E]  
 
 --------------------------|--------------------------|
 --------------------------|--------------------------|
 --------------------------|--------------------------|
 --1--1--1--1--1--1--1--1--|--1--1--1--1--1--1--1--1--|

[E] [E] [E] [E] [E] [E] [E] [E] [E] [E] [E] [E] [E] [E] [E] [E]  
 
 --------------------------|--------------------------|
 --------------------------|--------------------------|
 --------------------------|--------------------------|
 --1--1--1--1--1--1--1--1--|--1--1--1--1--1--1--1--1--|

[E] [E] [E] [E] [E] [E] [E] [E] [E] [E] [E] [E] [E] [E] [E] [E]  
 
 --------------------------|--------------------------|
 --------------------------|--------------------------|
 --------------------------|--------------------------|
 --1--1--1--1--1--1--1--1--|--3--3--3--3--3--3--3--3--|

E E E E E E E E E H. E W
 
 --------------------------|---------------------|-------------------|
 --------------------------|---------------------|-------------------|
 --3--3--3--3--3--3--3--3--|--3------------------|-------------------|
 --------------------------|---------------------|-------------------|

W W W W
 
 -------------------|-------------------|-------------------|-------------------|
 -------------------|-------------------|-------------------|-------------------|
 -------------------|-------------------|-------------------|-------------------|
 -------------------|-------------------|-------------------|-------------------|

W W W W
 
 -------------------|-------------------|-------------------|-------------------|
 -------------------|-------------------|-------------------|-------------------|
 -------------------|-------------------|-------------------|-------------------|
 -------------------|-------------------|-------------------|-------------------|

W W E E E E E E E E
 
 -------------------|-------------------|--------------------------|
 -------------------|-------------------|--------------------------|
 -------------------|-------------------|--3--3--3--3--3--3--3--3--|
 -------------------|-------------------|--------------------------|

[E] [E] [E] [E] [E] [E] [E] [E] [E] [E] [E] [E] [E] [E] [E] [E]  
 
 --------------------------|--------------------------|
 --------------------------|--------------------------|
 --3--3--3--3--3--3--3--3--|--3--3--3--3--3--3--3--3--|
 --------------------------|--------------------------|

[E] [E] [E] [E] [E] [E] [E] [E] [E] [E] [E] [E] [E] [E] [E] [E]  
 
 --------------------------|--------------------------|
 --------------------------|--------------------------|
 --3--3--3--3--3--3--3--3--|--3--3--3--3--3--3--3--3--|
 --------------------------|--------------------------|

[E] [E] [E] [E] [E] [E] [E] [E] [E] [E] [E] [E] [E] [E] [E] [E]  
 
 --------------------------|--------------------------|
 --------------------------|--------------------------|
 --3--3--3--3--3--3--3--3--|--3--3--3--3--3--3--3--3--|
 --------------------------|--------------------------|

[E] [E] [E] [E] [E] [E] [E] [E] [E] [E] [E] [E] [E] [E] [E] [E]  
 
 --------------------------||---------------------------|
 --------------------------||*--------------------------|
 --3--3--3--3--3--3--3--3--||*--3--3--3--3--3--3--3--3--|
 --------------------------||---------------------------|

[E] [E] [E] [E] [E] [E] [E] [E] [E] [E] [E] [E] [E] [E] [E] [E]  
 
 --------------------------|--------------------------|
 --------------------------|--------------------------|
 --3--3--3--3--3--3--3--3--|--3--3--3--3--3--3--3--3--|
 --------------------------|--------------------------|

E E E E E E E E W W
 
 ---------------------------||-------------------|-------------------|
 --------------------------*||-------------------|-------------------|
 --3--3--3--3--3--3--3--3--*||-------------------|-------------------|
 ---------------------------||--1----------------|--3----------------|

W Q H.
 
 -------------------|---------------------||
 -------------------|---------------------||
 --3----------------|--3\-----------------||
 -------------------|---------------------||

Duration Legend
 
 ---------------

W - whole
H - half
Q - quarter
E - 8th
S - 16th
T - 32nd
X - 64th
. - note dotted
|-n-| - n-tuplets
Tablature Legend
 
 ----------------

L - tied note
x - dead note
g - grace note
(n) - ghost note
> - accentuded note
NH - natural harmonic
AH - artificial harmonic
TH - tapped harmonic
SH - semi harmonic
PH - pitch harmonic
h - hammer on
p - pull off
b - bend
br - bendRelease
pb - preBend
pbr - preBendRelease
brb - bendReleaseBend
\n/ - tremolo bar dip
\n - tremolo bar dive
-/n - tremolo bar Release up
/n\ - tremolo bar inverted dip
/n - tremolo bar return
-\n - tremolo bar Release down
S - shift slide
s - legato slide
/ - slide into from below or out of upwards
\ - slide into from above or out of downwards
~ - vibrato
W - wide vibrato
tr - trill
TP - tremolo picking
T - tapping
S - slap
P - pop
< - fade in
^ - brush up
v - brush down

Important: The song above is NOT stored on the Chordie server. The original song is hosted at www.guitartabs.cc. Chordie works as a search engine and provides on-the-fly formatting. Chordie does not index songs against artists'/composers' will. To remove this song please click here.

Text color:
Chord color:
Chord grids: 
Font size:    
Page size: 

B E
Rate #1 of 1 versions

Login - add to songbook

SHARE PAGE  



You need to log in to post comments