Guitar Tabs, Chords and Lyrics
Server problems seems to be fixed. Chordie has been experiencing problems with songs disappearing. These issues now seems to be fixed, but still verifying the fix. If you find anything strange, please email admin@chordie.com.


Always Attract  You Me at Six

 
 -------------------------------------------------------------------------------

Always Attract - You Me At Six
 
 -------------------------------------------------------------------------------

Tabbed by: Cannibal_freak1
Email: ditto_ditto_3@hotmail.com
Tuning: Standard
I'm really sorry, but this is only the intro/verse so far
I'm working my ass off to get the rest of it done though :)
Intro/Verse
 
 e|-------3-----2-----3-----7-----7----|
 B|---------3-----3-----3-----0-----0--|
 G|-----------0-----0-----0-----0------|
 D|------------------------------------| x2
 A|-----2------------------------------|
 E|---3--------------------------------|
 e|------3-----2-----3-----2-----2-----|
 B|--------3-----3-----3-----3-----3---|
 G|----------0-----0-----0-----0-------|
 D|------------------------------------|
 A|----2-------------------------------|
 E|--0---------------------------------|
 e|------3----2-----3-----2-----2------|
 B|--------3----3-----3-----3-----3----|
 G|----------0----0-----0-----0--------|
 D|----2-------------------------------|
 A|--3---------------------------------|
 E|------------------------------------|

[G]if it hurts this much,
then it must be [Em7]love,
and its a lottery,[Cadd9]
i can't wait to draw your [G]name.
oh i'm trying to get to you,
but time isn't on my [Em7]side,
the truths the worst i could [Cadd9]do,
and i guess that i have [Cadd9]lied.
keeping me [Em11]awake,
it's been like this now for [Em7]days,
my heart is out at sea,
my head all over the [Cadd9]place,
i'm loosing sence of [Em11]time,
and everything tastes the [Em7]same,
i'll be home in a day,
i fear thats a month to [G]late.
[G]that night [D]i slept,
[G]on your side [D]of the bed [Em7]so,
it was [G/F#]ready when you got [Cadd9]home,
[G]we're like [D]noughts and [G]crosses in [D]that
[Em7]opposites [F#/G]always [Cadd9]attract.
you've taken me to the top,
and let me fall back south
you've had me at the top of the pile,
and then had me kissing the ground
we've heard and seen it all,
no ones talked us out,
the problems that have come
haven't yet torn us down.
Am I keeping you awake, if i am then just say,
you can make your own decisions; you can make your own mistakes,
i'll live and let die all the promises you made,
but if you lie another time, it'll be a lie thats to late.
[G]You always have your [G/F#]way,
for now it to soon for you to [Cadd9]say,
we will be always [G]always.
DONE :)
to be honest
most of it may be wrong
but oh well, it sounds ok to me
| / slide up
| \ slide down
| h hammer-on
| p pull-off
| ~ vibrato
| + harmonic
| x Mute note
===============================================================================

Important: The song above is NOT stored on the Chordie server. The original song is hosted at www.guitartabs.cc. Chordie works as a search engine and provides on-the-fly formatting. Chordie does not index songs against artists'/composers' will. To remove this song please click here.

Text color:
Chord color:
Chord grids: 
Font size:    
Page size: 

Cadd9 D Em11 Em7 F#/G G G/F#
Rate #1 of 14 versions

Jango Player

Login - add to songbook

SHARE PAGE  




You need to log in to post comments