Guitar Tabs, Chords and Lyrics
Server problems seems to be fixed. Chordie has been experiencing problems with songs disappearing. These issues now seems to be fixed, but still verifying the fix. If you find anything strange, please email admin@chordie.com.


It Must Be Love  Alan Jackson

Intro tabbed by Scott Duvall
thanks to Kevin Ross for the rhythm parts
Intro
 
 |-2-2--------------------2-2----------------------2-2-----
 |-4p2--------------------4p2----------------------2p4-----
 |----1s3-3s1---------1------1s3-3s1----1s3-3s1--------1s3-
 |------------4-----4---4------------4---------------------
 |--------------1s2----------------------------------------
 |---------------------------------------------------------
 ---------------------16p14p11p9-9---------9---9----|
 -2-------------------16p14p11p9-9---9s11--11--9----|
 ---3h1---------1------------------11------------11-|
 -------4-----4---4---------------------------------|
 ---------1s2---------------------------------------|
 ---------------------------------------------------|

I found out that the intro sounds good when playing along
with the CD with no capo on. You may need to capo the neck at the
2nd or 4th to get whatever effect you desire, but no capo should
sound alright too.
Alan plays with a capo on the 4th fret.
[D]First I get cold then hot
[G]Think I'm on fire, but I'm not
[D]Oh what a pain I've got
[A]It must be l[D]ove
There's nothin' I can do
All that I want is you
Look what I'm goin' through
It must be love
CHORUS:
[D]It must be love, [G]it must be l[D]ove
I f[G]all like a sp[D]arrow and f[A]ly like a d[D]ove
[D]You must be the dream I've b[G]een dreaming [D]of
[G]Oh what a f[D]eeling, i[A]t must be l[D]ove
Something is wrong, alright
I think of you all night
Can't sleep till mornin' light
It must be love
Seein' you in my dreams
Feelin'' you close to me
Oh what else can it be?
It must be love
CHORUS
INSTRUMENTAL (CHORUS CHORDS)
CHORUS (INSTRUMENTS OUT)
CHORUS TO END (with instruments)

Important: The song above is NOT stored on the Chordie server. The original song is hosted at www.tabcountry.com. Chordie works as a search engine and provides on-the-fly formatting. Chordie does not index songs against artists'/composers' will. To remove this song please click here.

Text color:
Chord color:
Chord grids: 
Font size:    
Page size: 

A D G
Rate #1 of 9 versions

Login - add to songbook

SHARE PAGE  




You need to log in to post comments