Guitar Tabs, Chords and Lyrics
Major upgrade!! After one year development the new version of Chordie is now online! Please give feedback.


King of the Mountain   Bon Jovi

 
 LOW E ---0-------------------------------------

 


 


 <INTRO 2ND PART>


 |-|<-REPEAT [REPEAT]


 

 
 e ---3-----------------------------------------
 B ---3-----------------------------------------
 G -------3---2---0-----------------------------
 D -------3---2---0-----------------------------
 A ---------------------------------------------
 E ---------------------------------------------

 


 


 <VERSE 1> [REPEAT]


 

 
 e ---------------------------------------------
 B ---------------------------------------------
 G ---3---2---0---------------------------------
 D ---3---2---0---------------------------------
 A ---------------------------------------------
 E ---------------------------------------------

 


 


 


 [REPEAT] 


 

 
 e ---------------------------------------------
 B ---------------------------------------------
 G ---2-----------------------------------------
 D ---2-----------------------------------------
 A ---------------------------------------------
 E ---------------------------------------------
 e ---------------------------------------------
 B ---------------------------------------------
 G ---------------------------------------------
 D ---------------------------------------------
 A ---3---4---5---6---7--8----------------------
 E ---------------------------------------------

 


 


 


 <CHORUS>


 |-|<-REPEAT [REPEAT]


 

 
 e ---3-----------------------------------------
 B ---3-----------------------------------------
 G -------3---2---0-----------------------------
 D -------3---2---0-----------------------------
 A ---------------------------------------------
 E ---------------------------------------------

 


 


 


 <VERSE 2> [REPEAT]


 

 
 e ---------------------------------------------
 B ---------------------------------------------
 G ---3---2---0---------------------------------
 D ---3---2---0---------------------------------
 A ---------------------------------------------
 E ---------------------------------------------

 


 


 


 [REPEAT] 


 

 
 e ---------------------------------------------
 B ---------------------------------------------
 G ---2-----------------------------------------
 D ---2-----------------------------------------
 A ---------------------------------------------
 E ---------------------------------------------
 e ---------------------------------------------
 B ---------------------------------------------
 G ---------------------------------------------
 D ---------------------------------------------
 A ---3---4---5---6---7--8----------------------
 E ---------------------------------------------

 


 


 <CHORUS>


 |-|<-REPEAT [REPEAT]


 

 
 e ---3-----------------------------------------
 B ---3-----------------------------------------
 G -------3---2---0-----------------------------
 D -------3---2---0-----------------------------
 A ---------------------------------------------
 E ---------------------------------------------

 


 


 


 <SOLO> [REPEAT]


 

 
 e ---------------------------------------------
 B ---------------------------------------------
 G ---2-----------------------------------------
 D ---2-----------------------------------------
 A ---------------------------------------------
 E ---------------------------------------------

 


 


 _______________________________________________


 


 [REPEAT] 


 

 
 e ---------------------------------------------
 B ---------------------------------------------
 G ---3---2---0---------------------------------
 D ---3---2---0---------------------------------
 A ---------------------------------------------
 E ---------------------------------------------

 


 


 


 <VERSE 1> [REPEAT]


 

 
 e ---------------------------------------------
 B ---------------------------------------------
 G ---3---2---0---------------------------------
 D ---3---2---0---------------------------------
 A ---------------------------------------------
 E ---------------------------------------------

 


 


 


 [REPEAT] 


 

 
 e ---------------------------------------------
 B ---------------------------------------------
 G ---2-----------------------------------------
 D ---2-----------------------------------------
 A ---------------------------------------------
 E ---------------------------------------------
 e ---------------------------------------------
 B ---------------------------------------------
 G ---------------------------------------------
 D ---------------------------------------------
 A ---3---4---5---6---7--8----------------------
 E ---------------------------------------------

 


 


 <CHORUS>


 |-|<-REPEAT [REPEAT]


 

 
 e ---3-----------------------------------------
 B ---3-----------------------------------------
 G -------3---2---0-----------------------------
 D -------3---2---0-----------------------------
 A ---------------------------------------------
 E ---------------------------------------------


Important: The song above is NOT stored on the Chordie server. The original song is hosted at www.xguitar.com. Chordie works as a search engine and provides on-the-fly formatting. Chordie does not index songs against artists'/composers' will. To remove this song please click here.

This song is displayed as text-only. Transposing and tuning is only available for chordpro-songs.
Rate #1 of 4 versions

Login - add to songbook

SHARE PAGE  



You need to log in to post comments