Guitar Tabs, Chords and Lyrics
Major upgrade!! After one year development the new version of Chordie is now online! Please give feedback.


Have a Nice Day  Bon Jovi

Note: Music sounds 2 steps higher than written (guitar with capo on 4th fret) **except solo**
At the '&' sign play the main riff
[ INTRO ] 
(main riff)
 
 e-------------0--0-----1---1----0--0------3---3-------------------|
 B---1--1------1--1-----1---1----1--1------3---3-------------------|
 G---2--2------0--0-----2---2----0--0------0---0-------------------| x2
 D---2--2------2--2-----3---3----2--2------0---0-------------------|
 A-------------3--3-----3---3----3--3------------------------------|
 E-----------------------------------------3---3-------------------|

[ VERSE 1 ] 
Why d'you wanna tell me how to live my life
 
 e-------------------------------------------|-------------0--0----1--1----3---3--|
 B--1---X--X--X---X--X--X--X--X---X--X-------|-----1--1----1--1----1--1----3---3--|
 G--2---X--X--X---X--X--X--X--X---X--X-------|-----2--2----0--0----2--2----0---0--|
 D--2---X--X--X---X--X--X--X--X---X--X-------|-----2--2----2--2----3--3----0---0--|
 A-------------------------------------------|-------------3--3----3--3-----------|
 E-------------------------------------------|-----------------------------3---3--|

Who are you to tell me if it's black or white
 
 e----------------------------------------|--------------0--0----1--1----3---3--|
 B--1---X--X--X---X--X--X--X--X---X--X----|-----1--1-----1--1----1--1----3---3--|
 G--2---X--X--X---X--X--X--X--X---X--X----|-----2--2-----0--0----2--2----0---0--|
 D--2---X--X--X---X--X--X--X--X---X--X----|-----2--2-----2--2----3--3----0---0--|
 A----------------------------------------|--------------3--3----3--3-----------|
 E----------------------------------------|------------------------------3---3--|

M[Am]ama can't you help me try to understand
I[C]nnocence's the difference between a boy and a man
M[G5]y daddy lived a lie it's just the price that he paid
S[G5]acrificed his life just s[F5]laving away
[ CBOURUS ] 
O[Am]h, if there's one [C]thing I'll hold on [G5]to, it gets me through the night
I[Am] ain't gonna live[C] like I don't want t[G5]o, I'm gonna live my life
S[Am]hinin' like a [C]diamond, ro[F]llin' with the d[G5]ice
S[Am]tandin' on the[C] edge and ?[F]showin' the wind[G5] how to fly?
Am C G5 &
When the world gets in my face I'll say, Have A Nice Day, Have a Nice Day
[ VERSE 2 ] as verse 1
Take a look around you nothin's what it seems
We're living in a broken home of hopes and dreams
Let me be the first to shake the helping hand
Of anybody brave enough to take the stand
I've knocked on every door on every dead end street
Lookin' for forgiveness, what's left to believe
[ CBOURUS ] 
[ SOLO ] 
 
 e----------------------------------------------------------------------------------------------|
 B---12b(14)~--14--12------12b(14)~---14p12-----------------------------------------------------|
 G---------------------13-------------------------13--11~--9--11--9---11b(13)r(11)~-------------|
 D----------------------------------------------------------------------------------------------|
 A----------------------------------------------------------------------------------------------|
 E----------------------------------------------------------------------------------------------|
 e----------------------------------------------------------------------12b(14)-14---12-12--11-11------|
 B---------14-12-14------14-12-14-------14-12-14-------14-12-14-------------------------------------14-|
 G-----13-------------13-------------13-------------13-------------------------------------------------|
 D-----------------------------------------------------------------------------------------------------|
 A-----------------------------------------------------------------------------------------------------|
 E-----------------------------------------------------------------------------------------------------|
 e-----------------------------------------------------------------------|
 B----10---10---10---9--9--9---7--7--7-----------------------------------|
 G----9----9----9----8--8--8---6--6--6---11------------------------------|
 D-----------------------------------------------------------------------|
 A-----------------------------------------------------------------------|
 E-----------------------------------------------------------------------|

[ CBOURUS ] 
Ad lib

Important: The song above is NOT stored on the Chordie server. The original song is hosted at www.xguitar.com. Chordie works as a search engine and provides on-the-fly formatting. Chordie does not index songs against artists'/composers' will. To remove this song please click here.

Text color:
Chord color:
Chord grids: 
Font size:    
Page size: 

Am C F F5 G5
Rate #3 of 15 versions

Login - add to songbook

SHARE PAGE  




You need to log in to post comments