Guitar Tabs, Chords and Lyrics
Major upgrade!! After one year development the new version of Chordie is now online! Please give feedback.


Stick to Your Guns  Bon Jovi

Tabbed By: Mark Terkelsen
STICK TO YOUR GUNS
The song consists of a few bars of an heavy electric chords followed by two
rounds of an accoustic intro.
Intro (electric):
[D5] [G] [D5] [G] [D5] [G] [D5] [G] [G]  
 
 e-x-x-3-----x-x-3-----x-3-----x-x-3-----3----------------
 B-3-3-0-----3-3-0-----3-0-----3-3-0-----0----------------
 G-2-2-0-----2-2-0-----2-0-----2-2-0-----0----------------
 D-0-0-0-----0-0-0-----0-0-----0-0-0-----0----------------
 A-0-0-2-----0-0-2-----0-2-----0-0-2-----2----------------
 E-----3---------3-------3---------3-----3----------------

Intro (accoustic): - play twice
[D] [G] [A] [Bm] [A]  
 
 e--2--2-2-0-----3-----3-------0----------0--------2------
 B--3--------3-2-0---0---0-----2------2-3--------3--------
 G--2------------0-0-------0---2----2----------4-------2--
 D--0------------0-----------0-2--2----------4-------2----
 A--------------------------------------------------------
 E--------------------------------------------------------

[G] [D] [A]  
 
 e---0-------3-3------------------3-2--0------------0-----
 B-2-------0-----0--------------0---3--2----------2-------
 G-------0---------0----------0-----2--2--------2---------
 D-----0--------------0---0-0-------0--2----2-2-----------
 A--------------------------------------------------------
 E--------------------------------------------------------

[D]So you want to be a co[G]wboy,[(A)]
[A]Well you know it's more than j[Bm]ust a r[A]ide[(D)]
[D]You gotta know the real th[G]ing
[A]If you're gonna know the o[Bm]ther s[A]ide[(D)]
[D]Ain't nobody riding sho[G]tgun
[A]In the world tonight[Bm] [A]
-- Repeat Electric Intro (Combo of D5 and G chords)
during this verse:
And when you spit, you better mean it
You better make 'em all believe it
[G]If you're gonna [D]be the o[A]ne
[G]Woooooooo....
[D]Stick to your g[G]uns[(A)]
[A]Ain't nobody gonna h[Bm]urt you ba[A]by[(G)]
[G]You can go for the trigger
[G]But only if you ha[D]ve t[A]o
[D]Aim from the he[G]art[(A)]
[A]Some will love and some will cu[Bm]rse you, b[A]aby[(G)]
[G]And you can go to war
[G]But only if you ha[D]ve t[A]o
[A]It's only if you have t[D]o
-- Repeat Acoustic Intro
[D]So you want to be the b[G]ig time[(A)]
[A]Some people have to d[Bm]rag you do[A]wn[(D)]
[D]There's no living in the ba[G]ckseat
[A]If you're gonna dr[Bm]ive through to[A]wn[(D)]
[D]And when you pray for in[G]dependence, Hey boy
[G]you better sta[Bm]nd your gr[A]ound
Repeat Electric Intro during these lines:
You got to give it all you got now
Or you might get shot down
[G]Fight hard until the ba[D]ttle is w[A]on
[D]Stick to your g[G]uns[(A)]
[A]Ain't nobody gonna h[Bm]urt you ba[A]by[(G)]
[G]You can go for the trigger
[G]But only if you ha[D]ve t[A]o
[D]Aim from the he[G]art[(A)]
[A]Some will love and some will cu[Bm]rse you, b[A]aby[(G)]
[G]And you can go to war
[G]But only if you ha[D]ve t[A]o
[A]It's only if you have t[D]o
Guitar Solo
--Repeat Electric Intro during these lines:
Well, you know that I been through it
I got the scars to prove it
[G]Fight hard and the ba[D]ttle is y[A]ours
[G]Woooooooo...
[D]Stick to your g[G]uns[(A)]
[A]Ain't nobody gonna h[Bm]urt you ba[A]by[(G)]
[G]You can go for the trigger
[G]But only if you ha[D]ve t[A]o
[D]Aim from the he[G]art[(A)]
[A]Some will love and some will cu[Bm]rse you, b[A]aby[(G)]
[G]And you can go to war
[G]But only if you ha[D]ve t[A]o
[A]It's only if you have t[D]o
[Bm]Stick to your gu[G]ns
[G]Woooooo[A]o
So you wanna be a cowboy...
This one is probably my favorite non-hit track from New Jersey.
Enjoy!

Important: The song above is NOT stored on the Chordie server. The original song is hosted at www.xguitar.com. Chordie works as a search engine and provides on-the-fly formatting. Chordie does not index songs against artists'/composers' will. To remove this song please click here.

Text color:
Chord color:
Chord grids: 
Font size:    
Page size: 

A Bm D D5 G
Rate #0 of 7 versions

Login - add to songbook

SHARE PAGE  




You need to log in to post comments